Status Quo - Ol Rag Blues


Ol Rag Blues Тип: табулатура


tabbed by marcus lubbock
status quo
Ol' rag blues

---------------------------------------------------------------------
The song comes from the Back to Back - album.
I think this is a great album (Last one with Alan Lancaster).
The song has a great feeling.
---------------------------------------------------------------------
Legend
------
h = hammer-on
p = pull-off
b = bend
r = bend release
/ = slide up/down
~ = vibrato

Intro
E|--------------------------------------------------14b15--14b15--14b15-|
B|-13~13--------13----15----17~-17-15-13~-15-13-12~---------------------|
G|-------12~-12----12----12---------------------------------------------|
D|----------------------------------------------------------------------|
A|----------------------------------------------------------------------|
E|----------------------------------------------------------------------|

Solo
E|--14b15--14b15--14b15------------|-----------------------15-----------|
B|---------------------------------|---------15b17--r15b2-----15--15b17-|
G|---------------------------------|------------------------------------|
D|---------------------------------|------------------------------------|
A|-----------------------15\-------|------------------------------------|
E|---------------------------------|------------------------------------|


E|---------12-----20b22--20~-------------------------------------------|
B|--r13-15----13-------------20b22--20~-18--18-18-18-17-15----17-15----|
G|---------------------------------------------------------17-------17-|
D|---------------------------------------------------------------------|
A|---------------------------------------------------------------------|
E|---------------------------------------------------------------------|

E|---------------------|
B|---------------------|
G|-16-14~-14-16/17-17~-|
D|---------------------|
A|---------------------|
E|---------------------|


C G F
When you look into a mirror tell me what do you see

C G F G
is it pictures of lily crying do you know what I mean

C G F C
I've been living high I've been living low

G F C
Like a bird in the sky This is the way to go


C G F
What you gonna do with those faded blues you wear

C G F
What you gonna do with those ol' rag blues

C G E7/G# Am
What you gonna do with those ol' blue jeans you wear

G G7 F/G
Old rag blues old rag blues Old rag blues


Did you think it was forever oh well now you know

I've been living high I've been living low

never give up trying oh no no no

C G F
What you gonna do with those faded blues you wear

C G F
What you gonna do with those ol' rag blues

C G E7/G# Am
What you gonna do with those ol' blue jeans you wear

G G7 F/G
Old rag blues old rag blues Old rag blues


F/C C F/C C
I can hear you calling somewhere in the blue

F/C C G7
Can you here me calling for you for you Ahhh


SOLO


C G E7/G# Am
What you gonna do with those ol' blue jeans you wear

G G7 Fm7 C
Old rag blues old rag blues Old rag blues

Status Quo Menu

Status Quo News



«  Декабрь 2016  »
ПнВтСрЧтПтСбВс
   1234
567891011
12131415161718
19202122232425
262728293031

    Russian Fan Site Status Quo! 2008 2016 |