Oriental (intro) Тип: табулатура


this is one of the best new intros that status quo has in a new song
taken from a staus quo website type in staus quo tabs at google, it's the first one

Guitar intro:
A G-D
E|---15-----------------------------15-----------------------------|
B|-------15--13b14----------------------15--13b14------------------|
G|-14--14--14-----14-14-14-14-14--14--14--14-----14-14-14-..etc..--|
D|-----------------------------------------------------------------|
A|-----------------------------------------------------------------|
E|-----------------------------------------------------------------|

last round of the intro:
A
E|---15------------------------------------|
B|-------15---13b15-13b15-13b15r13---------|
G|-14--14--14----------------------14------|
D|-----------------------------------------|
A|-----------------------------------------|
E|-----------------------------------------|

Status Quo Menu

Status Quo News



«  Октябрь 2017  »
ПнВтСрЧтПтСбВс
      1
2345678
9101112131415
16171819202122
23242526272829
3031

    Russian Fan Site Status Quo! 2008 2017 |