Status Quo - Over And Done


Over And Done Тип: табулатура


Over And Done
Status Quo

Intro:
Rick's guitar opening: REMEMBER CAPO ON THE 7TH FRET!

theme A:
D|-0---------------------------------------------------| <- thin string
H|-0-0-1p0-1p0-3-3-1p0-1p0-1p0-------------------------|
G|-0-0-0---0---0-0-0---0---0-------- To be played -----|
D|-0-0-2p0-2p0-3-3-2p0-2p0-2p0-------- 4 times --------|
G|-0---------------------------------------------------|
D|-----------------------------------------------------| <- thick string


theme B:
D|-0---------------------------------------------------| <- thin string
H|-0-0-1p0-1p0-3-3-1-0---------------------------------|
G|-0-0-0---0---0-0-0-0-------------- To be played -----|
D|-0-0-2p0-2p0-3-3-2-0---------------- 4 times --------|
G|-0---------------------------------------------------|
D|-----------------------------------------------------| <- thick string

(theme A once again before the song enters.)


Over And Done
( Lancaster )

D
I really didn

Status Quo Menu

Status Quo News



«  Декабрь 2016  »
ПнВтСрЧтПтСбВс
   1234
567891011
12131415161718
19202122232425
262728293031

    Russian Fan Site Status Quo! 2008 2016 |