Status Quo - Over He World


Over He World Тип: табулатура


TABBED BY MARCUS LUBBOCK
STATUS QUO ROCKIN ALL OVER THE WORLD


REMBEMBER TO KEEP ON MOVING (LITTLE FINGER) 4TH FINGER ON AND OFF
THE STRING 5 FRETS DOWN FROM THE ROOT NOTE BUT NOT ON ROOT NOTE STRING!
Chords used
C X35553/8101098
F 133211/X81010108
G 355433/X1012121210
C/E 035553
F#O 203111 ?
C/G 335553

KEY
| | = 1 BAR
^ = BEND
/ = SLIDE
P = PULL OFF
H = HAMMER ON

INTRO
PIANO BAND ENTERS
| | | | |C| |C| |C| |C|

VERSE

|C| |C| |F| |F| |C| |G| |C| |C|

RIFF UNDER VERSE THIS IS TO BE PLAYED UNDER C REPEAT T
HE SAME RIFF FOR F AND G BUT FOR F U SLIDE 11/13 AND
FOR G U SLIDE 13/15 SO U JUST AJUST THE FRETS TO THE CHORD

e-----8-8-----8-8----8-8---8-8-|
b-------8-------8------8-----8-|
g-7/9-----7/9-----7/9---7/9----|
D------------------------------|
A------------------------------|
E------------------------------|

CHORUS

(ONE GUITAR PLAYS NORMAL BAR CHORDS
WHEN THE OTHER MOVES LITTLE FINGER ON AND OFF)

|C| |C| |F| |F| |C| |G| |C| |C|

SOLO GUITAR 2
C CHUCK BERRY STYLE C
e-----8-----8--------------12/13-13-13-12/13-13-13-12/13-13-13------|
b--------------------------12/13-13-13-12/13-13-13-12/13-13-13------|
g-7/9---7/9---78P7--------------------------------------------------|
D------------------10-7-10------------------------------------------|
A-------------------------------------------------------------------|
E-------------------------------------------------------------------|
C C
e-----------------------------------------|
b--------------10-8-------10-8------------|
g-15-13-14-----10-8-9H----10-8-9H---------|
D----------15----------10---------10-8----|
A--------------------------------------10-|
E-----------------------------------------|
G
e-/8-8------------------------|
b-/8-8-10-8-------------------|
g------10-8-9H----------------|
D--------------10-8-----------|
A-------------------10--------|
E-----------------------------|
C FADING OUT
e-------------------------|
b-------------------------|
g-------------------------|
D-8H10-8H10-8H10----------|
A-------------------------|
E-------------------------|

SOLO GUITAR 1 C
e-15--15-15-15--15-15-15--15-15-15--15-15-|
b-15^-15-15-15^-15-15-15^-15-15-15^-15-15-|
g-----------------------------------------|
D-----------------------------------------|
A-----------------------------------------|
E-----------------------------------------|
C
e------------------15^-15-15-13-12-------------------|
b-15^-15-13----13------------------15-13----15---13--|
g-----------14---------------------------14----14----|
D----------------------------------------------------|
A----------------------------------------------------|
E----------------------------------------------------|
C
e--------------------13^*---| ^* BEND UP AND DOWN
b-15^-13-15-13-13-----------|
g-----------------14--------|
D---------------------------|
A---------------------------|
E---------------------------|
C
e-------------------|
b-----5----5--------|
g-----5----5--------|
D-----5----5--------|
A-5/7---5/7---------|
E-------------------|

VERSE

|C| |C| |F| |F| |C| |G| |C| |C|

CHORUS

(ONE GUITAR PLAYS NORMAL BAR CHORDS
WHEN THE OTHER MOVES LITTLE FINGER ON AND OFF)

|C| |C| |F| |F| |C| |G| |C| |C|

CHORUS 2
ONE STRUM OF EACH BUT GAP IS A NORMAL BAR
|C| |C/E| |F| |F#O| |C/G| |G| |C| |C|

CLOSING RIFF
PART 1
e------------------|
b------------------|
g----7-8-9----7----|
D-10-------10---10-|
A------------------|
E------------------|
PART 2
e-----------------|
b-----------------|
g-7----9----7-----|
D---10---10---10--|
A-----------------|
E-----------------|

e-----8-8-----8-8----8-8---8-8-|
b-------8-------8------8-----8-|
g-7/9-----7/9-----7/9---7/9----|
D------------------------------|
A------------------------------|
E------------------------------|

Status Quo Menu

Status Quo News



«  Декабрь 2016  »
ПнВтСрЧтПтСбВс
   1234
567891011
12131415161718
19202122232425
262728293031

    Russian Fan Site Status Quo! 2008 2016 |