Status Quo - Over Lay Down


Over Lay Down Тип: табулатура



Intro: in D Francis:
E|--------------------------------------------------------------------------13--|
B|----------------------------------------------------13-15-15-15-15-15-15------|
G|-------------------------------------------------14---------------------------|
D|------------------------------------------------------------------------------|
A|----------12-12-12-12---------------------------------------------------------|
E|-Rick: ---10-10-10-10--..and soon..-------------------------------------------|


E|------------------------------------------------------13--------------------|
B|----13-15-15-15-15-13------------13-15-15-15-15-15-15--------13-15-15-15-15-|
G|-14-------------------14-10---14--------------------------14----------------|
D|----------------------------------------------------------------------------|
A|----------------------------------------------------------------------------|
E|----------------------------------------------------------------------------|

F D F
E|----------------------------------------------------------------------------|
B|-13-------------------------------------------------------------------------|
G|----14-10--12b14-12b14-12b14r12p10----10------------12b14-12b14-12b14r12p10-|
D|-----------------------------------12----12-12-10-12------------------------|
A|----------------------------------------------------------------------------|
E|----------------------------------------------------------------------------|

D F D F
E|---------------------------------------------------------------------------|
B|---------------------------------------------------------------------------|
G|----10-------------12b14-12b14-12b14r12p10----10-------------12b14-12b14---|
D|-12----12-12-10-12-------------------------12----12-12-10-12---------------|
A|---------------------------------------------------------------------------|
E|---------------------------------------------------------------------------|

D
E|--------------------------------------------------|
B|--------------------------------------------------|
G|-12b14r12p10----10----------------------10-12-----|
D|-------------12----12-12-10-12-10h11h12-----------|
A|--------------------------------------------------|
E|--------------------------------------------------|

Roll Over Lay down
(Rossi/Young/Parfitt/Lancaster/Coghlan)

D
When I got home that night
E - F
Early one morning
D
Seeing the note written in ink
E - F
Pinned to the door
D
Taking a drink cool from the fridge
E - F
Walk from the table
D
I drank a toast you were the most

The night before

F D
Roll over lay down and let me in
F
Roll over
D
It?s a long way where I?ve been
F D
Roll over lay down and let me in
F D
Roll over lay down


When I get home tomorrow night
After this morning
Show me the care you showed in the note
The night before
Maybe I won?t take a drink
From the table
Reckon I?ll lay me straight
Down the floor

Roll over lay down and let me in
Roll over
It?s a long way where I?ve been
Roll over lay down and let me in
Roll over lay down

D
E|---------------------------------------------------------------------------|
B|---------------------------------------------------------------------------|
G|---------------------------------------------------------------------------|
D|---7--7h9p7---7----7-7--7h9p7---7----7h9p7---7-7---7-----7h9p7---7-7---7---|
A|------------9-----------------9------------9-----9---5-5-------9-----9---5-|
E|---------------------------------------------------------------------------|

E|---------------------------------------------------------------------------|
B|---------------------------------------------------------------------------|
G|--------------------------------------------7-9b11-7----7-9b11-7----7-9b11-|
D|-7h9p7---7-7---7-----7h9p7---7-7---7----7-9-----------7-----------7--------|
A|-------9-----9---5---------9-----9---5-------------------------------------|
E|---------------------------------------------------------------------------|

E|--------------------------------------------------------------------------|
B|--------------------------------------------------------------------------|
G|----------7-9b11-7-----12b14r12p10-----------12b14r12p10-12b14-12b14------|
D|-7-7--7-------------12-------------12-12--12------------------------------|
A|--------------------------------------------------------------------------|
E|--------------------------------------------------------------------------|
G
E|-----------------------------------------------10--------10--------10-----|
B|-------------------10-10-10-10-10-10-10-10-13b----10-13b----10-13b----10--|
G|-12b14-12-10--10----------------------------------------------------------|
D|--------------------------------------------------------------------------|
A|--------------------------------------------------------------------------|
E|--------------------------------------------------------------------------|
D
E|-----10--------10--------10--------10-------------12b13-12b13-12b13r12----|
B|-13b----10-13b----10-13b----10-13b----13p10-------------------------------|
G|--------------------------------------------12-10-------------------------|
D|--------------------------------------------------------------------------|
A|--------------------------------------------------------------------------|
E|--------------------------------------------------------------------------|
F
E|-10------------------------------------------------------------------------|
B|----13-10----------10-------------------------10------13-15-15----13-15-15-|
G|----------12p10-12----12-10-11-------10h11h12------14----------14----------|
D|-------------------------------12-12---------------------------------------|
A|---------------------------------------------------------------------------|
E|---------------------------------------------------------------------------|
G F C D
E|-15b17-15-------------------------------------------------------------------|
B|----------15-15-15-15b18-15b18-15b18r15-13-15-15-15b18-15b18-15b18-15b18r15-|
G|----------------------------------------------------------------------------|
D|----------------------------------------------------------------------------|
A|----------------------------------------------------------------------------|
E|----------------------------------------------------------------------------|
F G F C D
E|--------17b19-17-15-------------------------------------------------------|
B|-13-15--------------17-15-----15-17-17b18r17-15--17b18r17-15--17b19-17b19-|
G|---------------------------16---------------------------------------------|
D|--------------------------------------------------------------------------|
A|--------------------------------------------------------------------------|
E|--------------------------------------------------------------------------|
F
E|--------------------------------------------------------------------------|
B|-17b19--17-17b19-17b19-17b19--17b20-17b20-17b20-17b20--17b20----13-15-13--|
G|--------------------------------------------------------------------------|
D|--------------------------------------------------------------------------|
A|--------------------------------------------------------------------------|
E|--------------------------------------------------------------------------|
G F C D
E|----------------------13--------------------------------------------12b13-|
B|----13-15-15b17r15-13----15-13----------------------10--10----------------|
G|-14----------------------------12h14p12-10-12p11p10--------13-12-10-------|
D|--------------------------------------------------------------------------|
A|--------------------------------------------------------------------------|
E|--------------------------------------------------------------------------|
F
E|-12b13-12b13r12-10---------------------------------10----10--------10-----|
B|--------------------12-12-12-12-12-12-12-12-12-12-----12----12-----10-----|
G|---------------------------------------------------------------10-----10--|
D|--------------------------------------------------------------------------|
A|--------------------------------------------------------------------------|
E|--------------------------------------------------------------------------|
G F C D
E|--------------------------------------------------------------------------|
B|-12-10-12b14-12b14r12-10----10-10--13-12-10----------------13-12-10-------|
G|-------------------------12-----------------12-10-11----------------12-10-|
D|-----------------------------------------------------12-12----------------|
A|--------------------------------------------------------------------------|
E|--------------------------------------------------------------------------|
F G F C D
E|-------10------10--------10-----------------------------------------------|
B|-11----10--13b----10-13b----10----10----10-----------13-12-10----------13-|
G|----12-------------------------12----12----12-10-10-----------12-10-11----|
D|--------------------------------------------------------------------------|
A|--------------------------------------------------------------------------|
E|--------------------------------------------------------------------------|
F
E|--------------------------------------------------------------------------|
B|-12-10--------13--10-----------------------13-13-13-13-13-13-13-13-13-13--|
G|-------12-10----------12--10h12p10h12p10---14-14-14-14-14-14-14-14-14-14--|
D|--------------------------------------------------------------------------|
A|--------------------------------------------------------------------------|
E|--------------------------------------------------------------------------|
G F C D
E|--------------------------------------------------------------------------|
B|-13-13-13-13-13-----------------------------------------------------------|
G|-14-14-14-14-14-12-10-12-10-12-12b13r12-----------------------------------|
D|--------------------------------------------------------------------------|
A|----------------------------------------12--------------------------------|
E|--------------------------------------------------------------------------|

Instrumental "Quiet Part"

F G F C D F G F C D
E|__________________________|_________________________|
H|________________15________|_________________________|
G|17__16____________________|17___16__________________|
D|________17__16____________|__________17____16_______|
A|__________________________|_________________________|
E|__________________________|_________________________|

F G F C D F G F C D
E|__________________________|_________________________|
H|________________15_17_15__|_________________________|
G|17__16____________________|17___16__________________|
D|________17__16____________|__________17____16_______|
A|__________________________|_________________________|
E|__________________________|_________________________|


E|___________________________________________________|
H|13_13_13_13_13_13_13_..etc.._______________________|
G|14_14_14_14_14_14_14_..etc.._______________________|
D|___________________________________________________|
A|___________________________________________________|
E|___________________________________________________|

When I get home tomorrow night
After this morning
Show me the care you showed in the note
The night before
Maybe I won?t take a drink
From the table
Reckon I?ll lay me straight
Down the floor

Roll over lay down and let me in
Roll over
It?s a long way where I?ve been
Roll over lay down and let me in
Roll over lay down

The ending chords after a long solo:

D - F - G - Bb - D

REMARK: On the string where the * mark is placed to the right, don't bend the string all the way up to the
fret in every 9b11, but make it appr. 10,5 to get a sort of a "blue" tone. 13b=bend the string just a little!

Status Quo Menu

Status Quo News



«  Декабрь 2016  »
ПнВтСрЧтПтСбВс
   1234
567891011
12131415161718
19202122232425
262728293031

    Russian Fan Site Status Quo! 2008 2016 |