Status Quo - Overdose (intro)


Overdose (intro) Тип: табулатура


Overdose
Status Quo
In The Army Now 1986
Greg Harper gregharper2007@hotmail.co.uk

I love this song...

E|-------| |-------|
B|-6-5-5-| |-8-6-6-|
G|-5-5-5-|TWICE,THEN|-7-7-7-|THIS IS ALSO PLAYED TWICE
D|-5-5-5-| |-7-7-7-|THEN PLAY THE FIRST PART AGAIN ONCE.
A|-3-3-3-| |-5-5-5-|
E|-------| |-------|


THIS RIFF COMES BACK THROGHOUT

E|----------------------------|
B|----------------------------|
G|----------------------------|
D|-7-7-7-7-7-7-7-7-7-7--------|THERE.
A|-7-7-7-7-7-7-7-7-7-7--12-10-|
E|-5-5-5-5-5-5-5-5-5-5--10-8--|

Status Quo Menu

Status Quo News



«  Декабрь 2016  »
ПнВтСрЧтПтСбВс
   1234
567891011
12131415161718
19202122232425
262728293031

    Russian Fan Site Status Quo! 2008 2016 |