Pennsylvania Blues Tonight Тип: табулатура


Pennsylvania Blues Tonight
Status Quo
In Search Of The Fourth Chord 2007


Some of this is in harmony but I don't have time right now.

Intro and Instrumental Break
E|---------------------------------|
B|---------------------------------|
G|-11b-rb-9----9-----11b-rb-9----9-|
D|----------11---11-----------11---|
A|---------------------------------|
E|---------------------------------|


E|----------------------------------|
B|--------------------------------9-|
G|-11b-rb-9----8b-----11b-rb-9----9-|
D|----------11----11-----------11---|
A|----------------------------------|
E|----------------------------------|


Another guitar enters on the end of the intro and plays this:
E|------------|
B|------------|
G|------------|
D|---2----2---|
A|-4----4---4-|
E|------------|

Under the "oh oh oh" bit in the verse
E|-----------------------------------|
B|-----------------------------------|
G|-----------------------------------|
D|-----2--------2--------2-----------|
A|-2-4---4--2-4---4--2-4---4-4-4-4-4-|
E|-----------------------------------|



Status Quo Menu

Status Quo News



«  Май 2017  »
ПнВтСрЧтПтСбВс
1234567
891011121314
15161718192021
22232425262728
293031

    Russian Fan Site Status Quo! 2008 2017 |