Perfect Remedy (intro) Тип: табулатура


Perfect Remedy
Status Quo
Perfect Remedy 1989



E|-----------------------------------|
B|-----------------------------------|
G|-8/9-------6/7-7-7---8/9-------7-7-|
D|-6/7--8/9--4/5-7-7---6/7--8/9--7-7-|
A|------6/7------5-5--------6/7--5-5-|
E|-----------------------------------|


E|-----------------------------------|
B|-----------------------------------|
G|-8/9-------6/7-7-7---8/9-------7-7-|
D|-6/7--8/9--4/5-7-7---6/7--8/9--7-7-|
A|------6/7------5-5--------6/7--5-5-|
E|-----------------------------------|



Status Quo Menu

Status Quo News



«  Сентябрь 2017  »
ПнВтСрЧтПтСбВс
    123
45678910
11121314151617
18192021222324
252627282930

    Russian Fan Site Status Quo! 2008 2017 |