Status Quo - Proud Mary


Proud Mary Тип: басс табулатура


PROUD MARY
STATUS QUO


tempo 136 | | | | | |
|--------------------------------|--------------------------------|
|0-------0---0---0---0---0---0---|0---0---0---0---0---0---0---0---|
|--------------------------------|--------------------------------|
|--------------------------------|--------------------------------|
|--------------------------------|--------------------------------|

| | | | | | | |
|--------------------------------|--------------------------------|
|--------------------------------|--------------------------------|
|3---3-------0-------------------|------------------------3-------|
|--------------------3-------1---|----1-----------1---------------|
|--------------------------------|------------3-------------------|

| | | | | | | |
|--------------------------------|--------------------------------|
|0-------0---0---0---0---0---0---|0---0---0---0---0---0---0---0---|
|--------------------------------|--------------------------------|
|--------------------------------|--------------------------------|
|--------------------------------|--------------------------------|

| | | | | | | |
|--------------------------------|--------------------------------|
|0---0---0---0---0---0---0---0---|0---0---0---0---0---0---0-------|
|--------------------------------|----------------------------0---|
|--------------------------------|--------------------------------|
|--------------------------------|--------------------------------|

| | | | | | | |
|--------------------------------|--------------------------------|
|0---0---0---0---0---0---0---0---|0---0---0---0---0---0---0---0---|
|--------------------------------|--------------------------------|
|--------------------------------|--------------------------------|
|--------------------------------|--------------------------------|

| | | | | | | |
|--------------------------------|--------------------------------|
|0---0---0---0---0---0---0---0---|0---0---0---0---0---------------|
|--------------------------------|--------------------4---3---0---|
|--------------------------------|--------------------------------|
|--------------------------------|--------------------------------|

| | | | | | | |
|--------------------------------|--------------------------------|
|--------------------------------|--------------------------------|
|0---0---0---0---0---0---0---0---|0---0---0---0---0---0---0---1---|
|--------------------------------|--------------------------------|
|--------------------------------|--------------------------------|

| | | | | | | |
|--------------------------------|--------------------------------|
|--------------------------------|------------0---2---0-----------|
|2---2---2---2---2---2---2---2---|--------1h2-------------2-------|
|--------------------------------|3---3---------------------------|
|--------------------------------|----------------------------3---|

| | | | | | | |
|--------------------------------|--------------------------------|
|--------------------------------|--------------------------------|
|--------------------------------|--------------------------------|
|--------------------------------|--------------------------------|
|3---3---3---3---3---3---3---3---|3---3---3---3---3---3---3---3---|

| | | | | | | |
|--------------------------------|--------------------------------|
|--------------------------------|--------------------------------|
|--------------------------------|3---3---3---3-------------------|
|--------------------------------|----------------3---1---0-------|
|3---3---3---3---3---3---3---3---|----------------------------3---|

| | | | | | | |
|--------------------------------|--------------------------------|
|--------------------------------|--------------------------------|
|--------------------------------|--------------------------------|
|--------------------------------|--------------------------------|
|3---3---3---3---3---3---3---3---|3---3---3---3---3---3---3---3---|

| | | | | | | |
|--------------------------------|--------------------------------|
|--------------------------------|--------------------------------|
|------------------------0---2---|3---3-------0-------------------|
|--------------------------------|--------------------3-------1---|
|3---3---3---3---3---3-----------|--------------------------------|

| | | | | | | |
|--------------------------------|--------------------------------|
|--------------------------------|0---0---0---0---0---0---0---0---|
|------------------------3-------|--------------------------------|
|----1-----------1---------------|--------------------------------|
|------------3-------------------|--------------------------------|

| | | | | | | |
|--------------------------------|--------------------------------|
|0---0---0---0---0---0---0---0---|0---0---0---0---0---0---0---0---|
|--------------------------------|--------------------------------|
|--------------------------------|--------------------------------|
|--------------------------------|--------------------------------|

| | | | | | | |
|--------------------------------|--------------------------------|
|0---0---0---0---0---0-0-0---0---|0---0---0---0---0---0---0---0---|
|--------------------------------|--------------------------------|
|--------------------------------|--------------------------------|
|--------------------------------|--------------------------------|

| | | | | | | |
|--------------------------------|--------------------------------|
|0---0---0---0---0---0---0---0---|0---0---0---0---0---0---0---0---|
|--------------------------------|--------------------------------|
|--------------------------------|--------------------------------|
|--------------------------------|--------------------------------|

| | | | | | | |
|--------------------------------|--------------------------------|
|0---0---0-------0---------------|--------------------------------|
|------------4-------4---2---0---|0---0---0---0---0---0---0---0---|
|--------------------------------|--------------------------------|
|--------------------------------|--------------------------------|

| | | | | | | |
|--------------------------------|--------------------------------|
|--------------------------------|--------------------------------|
|0---0---0---0---0---0---0---0---|2---2---2---2---2---2---2---2---|
|--------------------------------|--------------------------------|
|--------------------------------|--------------------------------|

| | | | | | | |
|--------------------------------|--------------------------------|
|------------0---2---0-----------|--------------------------------|
|--------1h2---------------------|--------------------------------|
|3---3-------------------5-------|--------------------------------|
|----------------------------3---|3---3---3---3---3---3---3---3---|

| | | | | | | |
|--------------------------------|--------------------------------|
|--------------------------------|--------------------------------|
|--------------------------------|--------------------0---1---2---|
|--------------------------------|--------------------------------|
|3---3---3---3---3---3---3---3---|3---3---3---3---3---------------|

| | | | | | | |
|--------------------------------|--------------------------------|
|--------------------------------|--------------------------------|
|3---3---3---3-------------------|--------------------------------|
|----------------3---1---0-------|--------------------------------|
|----------------------------3---|3---3---3---3---3---3---3---3---|

| | | | | | | |
|--------------------------------|--------------------------------|
|--------------------------------|--------------------------------|
|--------------------------------|----------------------------2---|
|--------------------------------|------------------------5-------|
|3---3---3---3---3---3---3---2---|3---3---3---3---3---3-----------|

| | | | | | | |
|--------------------------------|--------------------------------|
|--------------------------------|--------------------------------|
|3---3-------0-------------------|------------------------3-------|
|--------------------3-------1---|----1-----------1---------------|
|--------------------------------|------------3-------------------|

| | | | | | | |
|--------------------------------|----------------0---0---0---0---|
|0---0---0---0---0---0---0---0---|--------------------------------|
|--------------------------------|3---3---3---3-------------------|
|--------------------------------|--------------------------------|
|--------------------------------|--------------------------------|

| | | | | | | |
|--------------------------------|----------------0---------------|
|0---0---0---0---0---0---0---0---|------------------------3-------|
|--------------------------------|3---3---3---3-------------------|
|--------------------------------|--------------------------------|
|--------------------------------|--------------------------------|

| | | | | | | |
|--------------------------------|------------------------0-------|
|0---0---0---0---0---0---0---0---|----------------------------3---|
|--------------------------------|3---3---3---3-------------------|
|--------------------------------|----------------3---3-----------|
|--------------------------------|--------------------------------|

| | | | | | | |
|--------------------------------|--------------------------------|
|0---0---0---0---0---0---0---0---|0---0---0---0---0-------0---3---|
|--------------------------------|--------------------4-----------|
|--------------------------------|--------------------------------|
|--------------------------------|--------------------------------|

| | | | | | | |
|--------------------------------|--------------------------------|
|--------------------------------|--------------------------------|
|0---0---0---0---0---0---0---0---|0---0---0---0---0---0---0---0---|
|--------------------------------|--------------------------------|
|--------------------------------|--------------------------------|

| | | | | | | |
|--------------------------------|--------------------------------|
|--------0---0---4---4---0---0---|------------0---2---0-----------|
|2---2---------------------------|--------2---------------2-------|
|--------------------------------|3---3---------------------------|
|--------------------------------|----------------------------3---|

| | | | | | | |
|--------------------------------|--------------------------------|
|--------------------------------|--------------------------------|
|--------------------------------|--------------------------------|
|--------------------------------|--------------------------------|
|3---3---3---3---3---3---3---3---|3---3---3---3---3---3---3---3---|

| | | | | | | |
|--------------------------------|--------------------------------|
|--------------------------------|--------------------------------|
|------------------------0---2---|3---3---3---3-------------------|
|--------------------------------|----------------3---1---0-------|
|3---3---3---3---3---3-----------|----------------------------3---|

| | | | | | | |
|--------------------------------|--------------------------------|
|--------------------------------|--------------------------------|
|--------------------------------|--------------------------------|
|--------------------------------|--------------------------------|
|3---3---3---3---3---3---3---3---|3---3---3---3---3---3---3---3---|

| | | | | | | |
|--------------------------------|--------------------------------|
|--------------------------------|--------------------------------|
|----------------------------1---|3---3-------0-------------------|
|------------------------4-------|--------------------3-------1---|
|3---3---3---3---3---3-----------|--------------------------------|

| | | | | | | |
|--------------------------------|--------------------------------|
|--------------------------------|--------------------------------|
|------------------------3-------|--------------------------------|
|----1-----------1---------------|--------------------------------|
|------------3-------------------|--------------------------------|

| | | | | | | |
|--------------------------------|--------------------------------|
|--------------------------------|--------------------------------|
|----------------3-------3-------|--------------------------------|
|--------------------------------|--------------------------------|
|--------------------------------|--------------------------------|

| | | | | | | |
|--------------------------------|--------------------------------|
|--------------------------------|--------------------------------|
|--------------------------------|--------------------------------|
|--------------------------------|--------------------------------|
|--------------------------------|--------------------------------|

| | | | | | | |
|--------------------------------|--------------------------------|
|--------------------------------|--------------------------------|
|--------------------------------|--------------------------------|
|--------------------------------|--------------------------------|
|--------------------------------|--------------------------------|

| | | | | | | |
|--------------------------------|--------------------------------|
|--------------------------------|--------------------------------|
|--------------------------------|--------------------------------|
|--------------------------------|--------------------------------|
|--------------------------------|--------------------------------|

| | | | | | | |
|--------------------------------|--------------------------------|
|--------------------------------|--------------------------------|
|--------------------------------|--------------------------------|
|--------------------------------|--------------------------------|
|--------------------------------|--------------------------------|

| | | | | | | |
|--------------------------------|--------------------------------|
|--------------------------------|--------------------------------|
|--------------------------------|--------------------------------|
|--------------------------------|--------------------------------|
|--------------------------------|--------------------------------|

| | | | | | | |
|--------------------------------|--------------------------------|
|--------------------------------|--------------------------------|
|----------------------------0---|0---0---0---0---0---0---0---0---|
|----2-------3-------4---4-------|--------------------------------|
|--------------------------------|--------------------------------|

| | | | | | | |
|--------------------------------|--------------------------------|
|--------------------------------|--------4---4---0---0-----------|
|0---0---0---0---0---0---0---0---|2---2-------------------2---2---|
|--------------------------------|--------------------------------|
|--------------------------------|--------------------------------|

| | | | | | | |
|--------------------------------|--------------------------------|
|------------0---2---0-----------|--------------------------------|
|--------1h1-------------1-------|--------------------------------|
|3---3---------------------------|--------------------------------|
|----------------------------3---|3---3---3---3---3---3---3---3---|

| | | | | | | |
|--------------------------------|--------------------------------|
|--------------------------------|--------------------------------|
|--------------------------------|------------------------0---1---|
|--------------------------------|--------------------------------|
|3---3---3---3---3---3---3---3---|3---3---3---3---3---3-----------|

| | | | | | | |
|--------------------------------|--------------------------------|
|--------------------------------|--------------------------------|
|3---3---3---3-------------------|--------------------------------|
|----------------3---1---0-------|--------------------------------|
|----------------------------3---|3---3---3---3---3---3---3---3---|

| | | | | | | |
|--------------------------------|--------------------------------|
|--------------------------------|--------------------------------|
|--------------------------------|--------------------0---1---2---|
|--------------------------------|--------------------------------|
|3---3---3---3---3---3---3---3---|3---3---3---3---3---------------|

| | | | | | | |
|--------------------------------|--------------------------------|
|--------------------------------|--------------------------------|
|3---3---3---3-------------------|0-------------------------------|
|----------------3/--2---3/--4---|--------------------------------|
|--------------------------------|--------------------------------|

| | | | | | | |
|--------------------------------|--------------------------------|
|--------------------------------|--------------------------------|
|(0)-----------------------------|2---------------5---------------|
|--------------------------------|--------------------------------|
|--------------------------------|--------------------------------|

| | | | | | | |
|0-------0---0-0-0---------------|--------------------------------|
|--------------------------------|--------------------------------|
|--------------------------------|--------------------------------|
|--------------------1---0-------|--------------------------------|
|----------------------------3---|3-------3---3---3---3---3---3---|

| | | | | | | |
|--------------------------------|--------------------------------|
|--------------------------------|--------------------------------|
|--------------------------------|------------------------0---2---|
|--------------------------------|--------------------------------|
|3---3---3---3---3---3---3---3---|3---3---3---3---3---3-----------|

| | | | | | | |
|--------------------------------|--------------------------------|
|--------------------------------|--------------------------------|
|3---3---3---3-------------------|--------------------------------|
|----------------3---1---0-------|--------------------------------|
|----------------------------3---|3---3---3---3---3---3---3---3---|

| | | | | | | |
|--------------------------------|--------------------------------|
|--------------------------------|--------------------------------|
|--------------------------------|--------------------0---2---3---|
|--------------------------------|----0---1---2---3---------------|
|3---3---3---3---3---3---3---3---|3-------------------------------|

| | | | | | | |
|--------------------------------|--------------------------------|
|--------------------------------|--------------------------------|
|3---3---3---0-------------------|--------------------------------|
|----------------3---1---0-------|--------------------------------|
|----------------------------1---|3---3---3---3---3---3---3---3---|

| | | | | | | |
|--------------------------------|--------------------------------|
|--------------------------------|--------------------------------|
|--------------------------------|------------------------0---2---|
|--------------------------------|--------------------------------|
|3---3---3---3---3---3---3---3---|3---3---3---3---3---3-----------|

| | | | | | | |
|--------------------------------|--------------------------------|
|--------------------------------|--------------------------------|
|3---3-------0-------------------|--------------------------------|
|--------------------3-------1---|----1-----------1-------3-------|
|--------------------------------|------------3-------------------|

| | | | | | | |
|--------------------------------|--------------------------------|
|--------------------------------|--------------------------------|
|3---3-------0-------------------|------------------------3-------|
|--------------------3-------1---|----1-----------1---------------|
|--------------------------------|------------3-------------------|

| | | | | | | |
|--------------------------------|--------------------------------|
|--------------------------------|--------------------------------|
|3-------------------------------|(3)-----------------------------|
|--------------------------------|--------------------------------|
|--------------------------------|--------------------------------|

Status Quo Menu

Status Quo News



«  Декабрь 2016  »
ПнВтСрЧтПтСбВс
   1234
567891011
12131415161718
19202122232425
262728293031

    Russian Fan Site Status Quo! 2008 2016 |