Pump It Up (intro) Тип: басс табулатура


Pump It Up
Status Quo
Riffs 2003
gregharper2007@hotmail.co.uk


G|--------------------------|
D|---1-2-1------------------|
A|--------0h1---------------|
E|-2----------2-2-0-2-0-2-0-|

G|--------------------------|
D|---1-2-1------------------|
A|--------0h1---------------|
E|-2----------2-2-0-2-0-2-0-|

G|--------------------------|
D|---1-2-1------------------|
A|--------0h1---------------|
E|-2----------2-2-0-2-0-2-0-|

G|--------------------------|
D|---1-2-1------------------|
A|--------0h1---------0-0-1-|
E|-2----------2-2-3-3-------|

G|----------------------|
D|----------------------|
A|-2-2-2-1-0--2-2-2-1-0-|
E|----------------------|

G|----------------------|
D|----------------------|
A|-2-2-2-1-0--2-2-2-1-0-|
E|----------------------|

G|----------------------|
D|----------------------|
A|-2-2-2-1-0--2-2-2-1-0-|
E|----------------------|

G|----------------------|
D|----------------------|
A|-2-2-2-1-0--2-2-2-1-0-|
E|----------------------|

Questions? Comments?
Corrections?
Get them to me using the above address.

Status Quo Menu

Status Quo News



«  Август 2017  »
ПнВтСрЧтПтСбВс
 123456
78910111213
14151617181920
21222324252627
28293031

    Russian Fan Site Status Quo! 2008 2017 |