Status Quo - Queenie (intro)


Queenie (intro) Тип: табулатура


Queenie
Status Quo
Thirsty Work 1994



E|-7--7--7--7--7-----7-7-|-7--7--7--7--7-----7---|
B|-7b-7b-7b-7b-7b-rb-5-7-|-7b-7b-7b-7b-7b-rb-5---|
G|-----------------------|---------------------6-|
D|-----------------------|-----------------------|
A|-----------------------|-----------------------|
E|-----------------------|-----------------------|


E|---------------|---------------|
B|---------------|---------------|
G|-6b-rb-4-4-----|-6b-rb-4-4-----|
D|-----------6-4-|-----------6-4-|
A|---------------|---------------|
E|---------------|---------------|


E|-/7-7-7-7----------|-/7-7-7-7---------|
B|-/7-7-7-7----------|-/7-7-7-7---------|
G|----------6b-rb-4--|----------6b-rb-4-|
D|-----------------4-|------------------|
A|-------------------|------------------|
E|-------------------|------------------|


E|-7-------------|--------------|
B|-7b-rb-5-5-----|-7b-rb-5-5--5-|
G|-----------6-4-|--------------|
D|---------------|--------------|
A|---------------|--------------|
E|---------------|--------------|


E|--------------|------------|---8------10-----|-----------------|
B|-5-5---7-7----|----9-----9-|-----------------|----12----12-----|
G|--------------|------------|-9---9/11--------|-----------------|
D|-----5-----7/-|-9-----9----|-------------12/-|-13----13----12/-|
A|--------------|------------|-----------------|-----------------|
E|--------------|------------|-----------------|-----------------|


E|--------------|
B|----12----12--|
G|--------------|
D|-13----13-----|
A|--------------|
E|--------------|

Status Quo Menu

Status Quo News



«  Декабрь 2016  »
ПнВтСрЧтПтСбВс
   1234
567891011
12131415161718
19202122232425
262728293031

    Russian Fan Site Status Quo! 2008 2016 |