Status Quo - Queenie (solo)


Queenie (solo) Тип: табулатура


Queenie
Status Quo
Thirsty Work 1994


A top Rossi solo.

/= Slide
b= Bend
rb= Release Bend
p= Pull-Off
h= Hammer-On
()= Pre Bend
[]= Harmonic

2:11

E|--------------------------------------------------------------|
B|----------------------------------------12--------------------|
G|-11b-11b-11b-11p9----9-----9-9----9-11b----(11b)-11p9----9----|
D|------------------11---11------11---------------------11---11-|
A|--------------------------------------------------------------|
E|--------------------------------------------------------------|

E|----------------------9-------9-------9-|
B|--------------------9-------9-------9---|
G|----------------11b-----11b-----11b-----|
D|----------------------------------------|
A|-----7-9h11-9-7-------------------------|
E|-7h9------------------------------------|

E|------------9------------9----------------------------------------------|
B|-12p9-----9---12p9-----9---12p9-12p9------------------------------------|
G|------11b----------11b---------------11-9h11p9-11p9----9----------------|
D|----------------------------------------------------11---11p9-----------|
A|--------------------------------------------------------------9h12p9----|
E|---------------------------------------------------------------------12-|

E|--------------------------19--------------------19--17-16----------------|
B|----------17-17----17-19b----19b-rb-19p17-19-17-----------17-------------|
G|-------18-------18-------------------------------------------16----------|
D|-16h18----------------------------------------------------------19-18-14-|
A|-------------------------------------------------------------------------|
E|-------------------------------------------------------------------------|

E|-------------------------------------------------19-----19-----19-|
B|--------------------------------------16-19--19b----19b----19b----|
G|-----------------------------------16-----------------------------|
D|--------------------14----14-16h18--------------------------------|
A|-14-14-14-14-14--14----16-----------------------------------------|
E|------------------------------------------------------------------|

E|-----19-----19-----19-----|
B|-19b----19b----19b----19b-|
G|--------------------------|
D|--------------------------|
A|--------------------------|
E|--------------------------|

 

00 НТ, компании южно сахалинск шахтерск автобус

Status Quo Menu

Status Quo News



«  Декабрь 2016  »
ПнВтСрЧтПтСбВс
   1234
567891011
12131415161718
19202122232425
262728293031

    Russian Fan Site Status Quo! 2008 2016 |