Status Quo - Rain


Rain Тип: табулатура


rain
Status Quo

Verse:
1 + + 2 + + 3 + + 4 + + 1 + + 2 + + 3 + + 4 + +
E |------------------------|------------------------|
C#|0-----------------------|----------0-5---0-3---0-|
A |0-----------------------|----------0-5---0-3---0-|
E |0-----------------------|----------0-5---0-3---0-|
A |0-----------------------|----------0-5---0-3---0-|
E |------------------------|------------------------|

1 + + 2 + + 3 + + 4 + + 1 + + 2 + + 3 + + 4 + +
E |------------------------|------------------------|
C#|------------------------|----------0-3---0-5---0-|
A |-LET THE A-CHORD RING---|----------0-3---0-5---0-|
E |--THROUGH THIS BAR------|----------0-3---0-5---0-|
A |------------------------|----------0-3---0-5---0-|
E |------------------------|------------------------|

1 + + 2 + + 3 + + 4 + + 1 + + 2 + + 3 + + 4 + +
E |------------------------|------------------------|
C#|------------------------|----------------0-5---3-|
A |-LET THE A-CHORD RING---|----------------0-5---3-|
E |--THROUGH THIS BAR------|----------------0-5---3-|
A |------------------------|----------------0-5---3-|
E |------------------------|------------------------|

Hook:
1 + + 2 + + 3 + + 4 + + 1 + + 2 + + 3 + + 4 + +
E |------------------------|------------------------|
C#|0-----------------------|----------------------3-|
A |0-----------------------|----------------------3-|
E |0-----------------------|----------------------3-|
A |0-----------------------|----------------------3-|
E |------------------------|------------------------|

1 + + 2 + + 3 + + 4 + + 1 + + 2 + + 3 + + 4 + +
E |------------------------|------------------------|
C#|------------------3---5-|------------------------|
A |------------------3---5-|------------------------|
E |------------------3---5-|------------------------|
A |------------------3---5-|------------------------|
E |------------------------|------------------------|

1 + + 2 + + 3 + + 4 + + 1 + + 2 + + 3 + + 4 + +
E |------------------------|------------------------|
C#|0-0-0-0---0-0---0-------|0---0-0---0-0---0-0---3-|
A |0-0-0-0---0-0---0-----0-|0---0-0---0-0---0-0---3-|
E |0-0-0-0---0-0---0-0h2-0-|0---0-0---0-0---0-0---3-|
A |0-0-0-0---0-0---0-------|0---0-0---0-0---0-0---3-|
E |------------------------|------------------------|
. . . . . .
d d d d d d d u d u d d d d d d

1 + + 2 + + 3 + + 4 + + 1 + + 2 + + 3 + + 4 + +
E |------------------------|------------------------|
C#|------------------3---5-|------------------------|
A |------------------3---5-|------------------------|
E |------------------3---5-|------------------------|
A |------------------3---5-|------------------------|
E |------------------------|------------------------|


Main riff 2x


Verse 2, same as verse but replace the hook by:

4 + + 1 + + 2 + + 3 + + 4 + + 1 + + 2 + + 3 + + 4 + +
E |------|------------------------|------------------------|
C#|----3-|------------------3---5-|------------------------|
A |----3-|------------------3---5-|------------------------|
E |----3-|------------------3---5-|------------------------|
A |----3-|------------------3---5-|------------------------|
E |------|------------------------|------------------------|

1 + + 2 + + 3 + + 4 + + 1 + + 2 + + 3 + + 4 + +
E |------------------------|------------------------|
C#|0---0-0---0-0---0-------|0---0-0---0-0---0-0---3-|
A |0---0-0---0-0---0-----0-|0---0-0---0-0---0-0---3-|
E |0---0-0---0-0---0-0h2-0-|0---0-0---0-0---0-0---3-|
A |0---0-0---0-0---0-------|0---0-0---0-0---0-0---3-|
E |------------------------|------------------------|
. . . . . .
d d d d d d d u d u d d d d d d

1 + + 2 + + 3 + + 4 + + 1 + + 2 + + 3 + + 4 + +
E |------------------------|------------------------|
C#|------------------3---5-|------------------------|
A |------------------3---5-|------------------------|
E |------------------3---5-|------------------------|
A |------------------3---5-|------------------------|
E |------------------------|------------------------|

1 + + 2 + + 3 + + 4 + + 1 + + 2 + + 3 + + 4 + +
E |------------------------|------------------------|
C#|0---0-0---0-0---0-------|0---0-0---0-0---0-0-----|
A |0---0-0---0-0---0-----0-|0---0-0---0-0---0-0-----|
E |0---0-0---0-0---0-0h2-0-|0---0-0---0-0---0-0-----|
A |0---0-0---0-0---0-------|0---0-0---0-0---0-0-----|
E |------------------------|------------------------|
. . . . . .
d d d d d d d u d u d d d d d


Riff 2:

1 + + 2 + + 3 + + 4 + + 1 + + 2 + + 3 + + 4 + +
E |------------------------|------------------------|
C#|6-----6-----5-----5-5-5-|4-----4-----3-----3-3-3-|
A |5-----5-----5-----5-5-5-|3-----3-----3-----3-3-3-|
E |7-----7-----5-----5-5-5-|5-----5-----3-----3-3-3-|
A |5-----5-----5-----5-5-5-|3-----3-----3-----3-3-3-|
E |------------------------|------------------------|

Francis plays the riff during next two bars
1 + + 2 + + 3 + + 4 + + 1 + + 2 + + 3 + + 4 + +
E |------------------------|------------------------|
C#|0---0-0---0-0---0-------|0---0-0---0-0---0-0-----|
A |0---0-0---0-0---0-----0-|0---0-0---0-0---0-0-----|
E |0---0-0---0-0---0-0h2-0-|0---0-0---0-0---0-0-----|
A |0---0-0---0-0---0-------|0---0-0---0-0---0-0-----|
E |------------------------|------------------------|
. . . . . .
d d d d d d d u d u d d d d d



Riff 2:
1 + + 2 + + 3 + + 4 + + 1 + + 2 + + 3 + + 4 + +
E ||-------------------------|-------------------------||
C#||*6-----6-----5-----5-5-5-|4-----4-----3-----3-3-3-*||
A ||-5-----5-----5-----5-5-5-|3-----3-----3-----3-3-3--|| 2x
E ||-7-----7-----5-----5-5-5-|5-----5-----3-----3-3-3--||
A ||*5-----5-----5-----5-5-5-|3-----3-----3-----3-3-3-*||
E ||-------------------------|-------------------------||


2x main riff


1 + + 2 + + 3 + + 4 + + 1 + + 2 + + 3 + + 4 + +
E |------------------------|------------------------|
C#|0-----------------------|------------------------|
A |0-----------------------|------------------------|
E |0-----------------------|------------------------|
A |0-----------------------|------------------5---0-|
E |------------------------|------------------------|
.


One-finger riff:
Following riff is played with the lefthand middlefinger only.
Start the triplet on the fifth position, slide your finger back
to the third position and pull off to let the open string ring.

1 + + 2 + + 3 + + 4 + + 1 + + 2 + + 3 + + 4 + +
E ||-------------------------|-------------------------||
C#||*------------------------|------------0-----------*||
A ||-------------------------|------------0------------||
E ||-5\3p0-------5\3p0-------|5\3p0-------0------------|| 4x
A ||*------5\3p0-------5\3p0-|------5\3p0-----------0-*||
E ||-------------------------|-------------------------||
.


Solo-backing:

1 + + 2 + + 3 + + 4 + +
E ||--------------------------||
C#||*0---0-0---0-0---0-------*||
A ||-0---0-0---0-0---0-----0--||
E ||-0---0-2---0-3---0-0h2-0--|| 7x
A ||*0---0-0---0-0---0-------*||
E ||--------------------------||

1 + + 2 + + 3 + + 4 + + 1 + + 2 + + 3 + + 4 + +
E |------------------------|------------------------|
C#|0---0-0---0-0---0-0---3-|----3-3---3-3---3-3---3-|
A |0---0-0---0-0---0-0---3-|----3-3---3-3---3-3---3-|
E |0---0-2---0-3---0-0---3-|----3-3---3-3---3-3---3-|
A |0---0-0---0-0---0-0---3-|----3-3---3-3---3-3---3-|
E |------------------------|------------------------|

1 + + 2 + + 3 + + 4 + + 1 + + 2 + + 3 + + 4 + +
E |------------------------|------------------------|
C#|5---5-5---5-5---5-------|0---0-0---0-0---0-------|
A |5---5-5---5-5---5-----0-|0---0-0---0-0---0-----0-|
E |5---5-5---5-5---5-0h2-0-|0---0-2---0-3---0-0h2-0-|
A |5---5-5---5-5---5-------|0---0-0---0-0---0-------|
E |------------------------|------------------------|


1 + + 2 + + 3 + + 4 + + 1 + + 2 + + 3 + + 4 + +
E |------------------------|------------------------|
C#|0---0-0---0-0---0-0---3-|----3-3---3-3---3-3---3-|
A |0---0-0---0-0---0-0---3-|----3-3---3-3---3-3---3-|
E |0---0-2---0-3---0-0---3-|----3-3---3-3---3-3---3-|
A |0---0-0---0-0---0-0---3-|----3-3---3-3---3-3---3-|
E |------------------------|------------------------|


1 + + 2 + + 3 + + 4 + + 1 + + 2 + + 3 + + 4 + +
E |------------------------|------------------------|
C#|5---5-5---5-5---5-------|0---0-0---0-0---0-------|
A |5---5-5---5-5---5-----0-|0---0-0---0-0---0-----0-|
E |5---5-5---5-5---5-0h2-0-|0---0-2---0-3---0-0h2-0-|
A |5---5-5---5-5---5-------|0---0-0---0-0---0-------|
E |------------------------|------------------------|

Hook:
1 + + 2 + + 3 + + 4 + + 1 + + 2 + + 3 + + 4 + +
E |------------------------|------------------------|
C#|0---0-0---0-0---0-0---3-|----------------------5-|
A |0---0-0---0-0---0-0---3-|----------------------5-|
E |0---0-2---0-3---0-0---3-|----------------------5-|
A |0---0-0---0-0---0-0---3-|----------------------5-|
E |------------------------|------------------------|


1 + + 2 + + 3 + + 4 + +
E |------------------------|
C#|------------------------|
A |--LET THE D-CHORD RING--|
E |----THROUGH THIS BAR----|
A |------------------------|
E |------------------------|

1 + + 2 + + 3 + + 4 + + 1 + + 2 + + 3 + + 4 + +
E |------------------------|------------------------|
C#|3---3-3---3-3---3-------|3---3-3---3-3---3-3---3-|
A |3---3-3---3-3---3-----3-|3---3-3---3-3---3-3---3-|
E |3---3-5---3-6---3-3h5-3-|3---3-5---3-6---3-5---3-|
A |3---3-3---3-3---3-------|3---3-3---3-3---3-3---3-|
E |------------------------|------------------------|


1 + + 2 + + 3 + + 4 + + 1 + + 2 + + 3 + + 4 + +
E ||-------------------------|------------------------|
C#||*0---0-0---0-0---0-------|0---0-0---0-0---0-0-1-2-|
A ||-0---0-0---0-0---0-----0-|0---0-0---0-0---0-0-1-2-|
E ||-0---0-2---0-3---0-0h2-0-|0---0-2---0-3---0-0-1-2-|
A ||*0---0-0---0-0---0-------|0---0-0---0-0---0-0-1-2-|
E ||-------------------------|------------------------|

1 + + 2 + + 3 + + 4 + + 1 + + 2 + + 3 + + 4 + +
E |------------------------|-------------------------||
C#|3---3-3---3-3---3-3---3-|3---3-3---3-3---3-3---3-*||
A |3---3-3---3-3---3-3---3-|3---3-3---3-3---3-3---3--|| 2x
E |3---3-5---3-6---3-5---3-|3---3-5---3-6---3-5---3--||
A |3---3-3---3-3---3-3---3-|3---3-3---3-3---3-3---3-*||
E |------------------------|-------------------------||

1 + + 2 + + 3 + + 4 + + 1 + + 2 + + 3 + + 4 + +
E |------------------------|------------------------|
C#|8---8-8---8-8---8-8---8-|8---8-8---8-8---8-8---8-|
A |8---8-8---8-8---8-8---8-|8---8-8---8-8---8-8---8-|
E |8---8-10--8-11--8-10--8-|8---8-10--8-11--8-10--8-|
A |8---8-8---8-8---8-8---8-|8---8-8---8-8---8-8---8-|
E |------------------------|------------------------|

1 + + 2 + + 3 + + 4 + + 1 + + 2 + + 3 + + 4 + +
E |------------------------|------------------------|
C#|7---7-7---7-7---7-7---7-|7---7-7---7-7---7-7---7-|
A |7---7-7---7-7---7-7---7-|7---7-7---7-7---7-7---7-|
E |7---7-7---7-7---7-7---7-|7---7-7---7-7---7-7---7-|
A |7---7-7---7-7---7-7---7-|7---7-7---7-7---7-7---7-|
E |------------------------|------------------------|



Mainriff 4x



Verse 3
Bars two and four have been switched in the third verse


Hook:
4 + + 1 + + 2 + + 3 + + 4 + + 1 + + 2 + + 3 + + 4 + +
E |------|------------------------|------------------------|
C#|----3-|------------------3---5-|------------------------|
A |----3-|------------------3---5-|------------------------|
E |----3-|------------------3---5-|------------------------|
A |----3-|------------------3---5-|------------------------|
E |------|------------------------|------------------------|

1 + + 2 + + 3 + + 4 + + 1 + + 2 + + 3 + + 4 + +
E |------------------------|------------------------|
C#|0---0-0---0-0---0-------|0---0-0---0-0---0-0---3-|
A |0---0-0---0-0---0-----0-|0---0-0---0-0---0-0---3-|
E |0---0-0---0-0---0-0h2-0-|0---0-0---0-0---0-0---3-|
A |0---0-0---0-0---0-------|0---0-0---0-0---0-0---3-|
E |------------------------|------------------------|
. . . . . .
d d d d d d d u d u d d d d d d

1 + + 2 + + 3 + + 4 + + 1 + + 2 + + 3 + + 4 + +
E |------------------------|------------------------|
C#|------------------3---5-|------------------------|
A |------------------3---5-|------------------------|
E |------------------3---5-|------------------------|
A |------------------3---5-|------------------------|
E |------------------------|------------------------|

1 + + 2 + + 3 + + 4 + + 1 + + 2 + + 3 + + 4 + +
E |------------------------|------------------------|
C#|0---0-0---0-0---0-------|0---0-0---0-0---0-0-----|
A |0---0-0---0-0---0-----0-|0---0-0---0-0---0-0-----|
E |0---0-0---0-0---0-0h2-0-|0---0-0---0-0---0-0-----|
A |0---0-0---0-0---0-------|0---0-0---0-0---0-0-----|
E |------------------------|------------------------|
. . . . . .
d d d d d d d u d u d d d d d d


Riff 2:
1 + + 2 + + 3 + + 4 + + 1 + + 2 + + 3 + + 4 + +
E |------------------------|------------------------|
C#|6-----6-----5-----5-5-5-|4-----4-----3-----3-3-3-|
A |5-----5-----5-----5-5-5-|3-----3-----3-----3-3-3-|
E |7-----7-----5-----5-5-5-|5-----5-----3-----3-3-3-|
A |5-----5-----5-----5-5-5-|3-----3-----3-----3-3-3-|
E |------------------------|------------------------|


Mainriff


Riff 2:
1 + + 2 + + 3 + + 4 + + 1 + + 2 + + 3 + + 4 + +
E ||-------------------------|-------------------------||
C#||*6-----6-----5-----5-5-5-|4-----4-----3-----3-3-3-*||
A ||-5-----5-----5-----5-5-5-|3-----3-----3-----3-3-3--||
E ||-7-----7-----5-----5-5-5-|5-----5-----3-----3-3-3--|| 2x
A ||*5-----5-----5-----5-5-5-|3-----3-----3-----3-3-3-*||
E ||-------------------------|-------------------------||

1 + + 2 + + 3 + + 4 + + 1 + + 2 + + 3 + + 4 + +
E |------------------------|------------------------|
C#|6-6-6-6-6-6-5-5-5-5-5-5-|4-4-4-4-4-4-3-3-3-3-3-3-|
A |5-5-5-5-5-5-5-5-5-5-5-5-|3-3-3-3-3-3-3-3-3-3-3-3-|
E |7-7-7-7-7-7-5-5-5-5-5-5-|5-5-5-5-5-5-3-3-3-3-3-3-|
A |5-5-5-5-5-5-5-5-5-5-5-5-|3-3-3-3-3-3-3-3-3-3-3-3-|
E |------------------------|------------------------|

Repeat main riff until completely fade out

Status Quo Menu

Status Quo News



«  Декабрь 2016  »
ПнВтСрЧтПтСбВс
   1234
567891011
12131415161718
19202122232425
262728293031

    Russian Fan Site Status Quo! 2008 2016 |