Status Quo - Rain1


Rain1
 
 
Francis:

I'm not quite sure about how the mainriff is being played by Francis.
I had many possible solutions but I've finally written this one down.
But I'm talking about small details here, the base covers his playing.
For instance I'm not sure if he's playing the full A-chord. You can't
really hear him playing the third (C#) and the (E) on some places,
but on other places you can.


Mainriff:
4 + + 1 + + 2 + + 3 + + 4 + + 1 + + 2 + + 3 + + 4 + +
E|------||-------------------------|-------------------------||
B|7---5-||*5-----7-----5-----------|5-----7-----5-----5-----*||
G|7---5-||-6-----7-----5-----7p5---|6-----7-----5-----5------||
D|7---5-||-7-----7-----5-----7p5---|7-----7-----5-----5------|| 3x
A|------||*0---0-----0-----0-----0-|0---0-----0-------------*||
E|------||-------------------------|-------------------------||
. . . . .
1 + + 2 + + 3 + + 4 + + 1 + + 2 + + 3 + + 4 + +
E|------------------------|--------------------------|
B|5-----7-----5-----------|5-----7-----5-----5---5-5-|
G|6-----7-----5-----7p5---|6-----7-----5-----5---6-6-|
D|7-----7-----5-----7p5---|7-----7-----5-----5---7-7-|
A|0---0-----0-----0-----0-|0---0-----0-----------0-0-|
E|------------------------|--------------------------|

1 + + 2 + + 3 + + 4 + + 1 + + 2 + + 3 + + 4 + +
E||-------------------------|---------------------------||
B||*5-----------------------|----------------------5-5-*||
G||-6-----------------------|----------------------6-6--||
D||-7-----------------------|----------------------7-7--|| 3x
A||*0-----------------------|----------------------0-0-*||
E||-------------------------|---------------------------||

hook:
1 + + 2 + + 3 + + 4 + + 1 + + 2 + + 3 + + 4 + +
E|------------------------|------------------------|
B|5-----------------------|----------------------5-|
G|6-----------------------|----------------------5-|
D|7-----------------------|----------------------5-|
A|0-----------------------|----------------------3-|
E|------------------------|------------------------|

1 + + 2 + + 3 + + 4 + + 1 + + 2 + + 3 + + 4 + +
E|------------------------|------------------------|
B|------------------5---7-|------------------------|
G|------------------5---7-|------------------------|
D|------------------5---7-|------------------------|
A|------------------3---5-|------------------------|
E|------------------------|------------------------|

1 + + 2 + + 3 + + 4 + + 1 + + 2 + + 3 + + 4 + +
E|------------------------|------------------------|
B|------------------------|----------------------5-|
G|2-----2-----2-----2-----|2-----2-----2-----2---5-|
D|2-----2-----2-----2-----|2-----2-----2-----2---5-|
A|0---0-0---0-0---0-0---0-|0---0-0---0-0---0-0---3-|
E|------------------------|------------------------|
. . . . . . . .

1 + + 2 + + 3 + + 4 + + 1 + + 2 + + 3 + + 4 + +
E|------------------------|------------------------|
B|------------------5---7-|------------------------|
G|------------------5---7-|------------------------|
D|------------------5---7-|------------------------|
A|------------------3---5-|------------------------|
E|------------------------|------------------------|

2 x mainriff

Verse 2, same as verse one but replace the hook by:

4 + + 1 + + 2 + + 3 + + 4 + + 1 + + 2 + + 3 + + 4 + +
E|------|------------------------|------------------------|
B|----5-|------------------5---7-|------------------------|
G|----5-|------------------5---7-|------------------------|
D|----5-|------------------5---7-|------------------------|
A|----3-|------------------3---5-|------------------------|
E|------|------------------------|------------------------|

1 + + 2 + + 3 + + 4 + + 1 + + 2 + + 3 + + 4 + +
E|------------------------|------------------------|
B|-----------------*7---5-|-----------------*8---5-|
G|2-----2-----2-----7---6-|------2-----2-----5---5-|
D|2-----2-----2-----7---7-|------2-----2-----5---5-|
A|0---0-0---0-0---0-------|------0---0-0---0-------|
E|------------------------|------------------------|
*This might be an overdub. So you can also continue
the same pattern as during the first three beats.

1 + + 2 + + 3 + + 4 + + 1 + + 2 + + 3 + + 4 + +
E|------------------------|------------------------|
B|------------------5---7-|------------------7-----|
G|------------------5---7-|------------------7-----|
D|------------------5---7-|------------------7-----|
A|----------------------5-|------------------5-----|
E|------------------------|------------------------|

1 + + 2 + + 3 + + 4 + + 1 + + 2 + + 3 + + 4 + +
E|------------------------|------------------------|
B|------------------------|------------------------|
G|2---2-2---2-2---2-2---2-|2---2-2---2-2-----2-----|
D|2---2-2---2-2---2-2---2-|2---2-2---2-2-----2-----|
A|0---0-0---0-0---0-0---0-|0---0-0---0-0-----0-----|
E|------------------------|------------------------|
. . . . . . (. = short)


Riff 2:
1 + + 2 + + 3 + + 4 + + 1 + + 2 + + 3 + + 4 + +
E|---------------------------|---------------------------|
B|12----12----10----10-10-10-|10----10----8-----8--8--8--|
G|12----12----11----11-11-11-|10----10----9-----9--9--9--|
D|12----12----12----12-12-12-|10----10----10----10-10-10-|
A|---------------------------|---------------------------|
E|---------------------------|---------------------------|


Mainriff


Riff 2:
1 + + 2 + + 3 + + 4 + + 1 + + 2 + + 3 + + 4 + +
E||----------------------------|----------------------------||
B||*12----12----10----10-10-10-|10----10----8-----8--8--8--*||
G||-12----12----11----11-11-11-|10----10----9-----9--9--9---||
D||-12----12----12----12-12-12-|10----10----10----10-10-10--||
A||*---------------------------|---------------------------*||
E||----------------------------|----------------------------||


2x Mainriff


1 + + 2 + + 3 + + 4 + + 1 + + 2 + + 3 + + 4 + +
E|------------------------|----------------------5-5-|
B|------------------------|----------------------5-5-|
G|2-----------------------|----------------------6-6-|
D|2-----------------------|----------------------7-7-|
A|0-----------------------|----------------------0-0-|
E|------------------------|--------------------------|

1 + + 2 + + 3 + + 4 + + 1 + + 2 + + 3 + + 4 + +
E||-5-----5-----------------|----------------------5-5--||
B||*5-----5-----------------|----------------------5-5-*||
G||-6-----6-----------------|----------------------6-6--||
D||-7-----7-----------------|----------------------7-7--|| 3x
A||*0-----0-----------------|----------------------0-0-*||
E||-------------------------|---------------------------||

1 + + 2 + + 3 + + 4 + + 1 + + 2 + + 3 + + 4 + +
E|5-----5-----------------|------------------------|
B|5-----5-----------------|------------------------|
G|6-----6-----------------|------------------------|
D|7-----7-----------------|------------------------|
A|0-----0-----------------|------------------------|
E|------------------------|------------------------|



Solo and overdubs:

On this spot the solo begins. I've written down the solo and overdubs
in one breath because I think they're on the same track.

Status Quo Menu

Status Quo News



«  Декабрь 2016  »
ПнВтСрЧтПтСбВс
   1234
567891011
12131415161718
19202122232425
262728293031

    Russian Fan Site Status Quo! 2008 2016 |