Status Quo - Rain2


Rain2
 
 
Overdubs:

This motiv you'll find several times during the song. At the end of
the mainriff, during the hook (on the chords C and D, at the beginning
of verse 2 and 3) and during the repeat and fade out of the mainriff.

1 + + 2 + + 3 + + 4 + + 1 + + 2 + + 3 + + 4 + +
E|------------------15---15b17-|slowly release to-15----|
B|-----------------------------|------------------------|
G|-----------------------------|------------------------|
D|-----------------------------|------------------------|
A|-----------------------------|------------------------|
E|-----------------------------|------------------------|

After verse two you'll find respectively riff 2 (1x), mainriff (1x),
riff 2 (2x) and the mainriff (2x). At the end of the last mainriff
the same motiv has been overdubbed but now an octave lower:

1 + + 2 + + 3 + + 4 + + 1 + + 2 + + 3 + + 4 + +
E|---------------------------|------------------------|
B|------------------8---8b10-|slowly release to-8-----|
G|---------------------------|------------------------|
D|---------------------------|------------------------|
A|---------------------------|------------------------|
E|---------------------------|------------------------|


During the repeat and fade out the first motiv has been
alternated with:

1 + + 2 + + 3 + + 4 + + 1 + + 2 + + 3 + + 4 + +
E|------------15---14---15--|15b17-release to--15----|
B|--------------------------|------------------------|
G|--------------------------|------------------------|
D|--------------------------|------------------------|
A|--------------------------|------------------------|
E|--------------------------|------------------------|


And during the last riff
1 + + 2 + + 3 + + 4 + + 1 + + 2 + + 3 + + 4 + +
E|------------15---14---15--|17b19------r17----------|
B|--------------------------|------------------------|
G|--------------------------|------------------------|
D|--------------------------|------------------------|
A|--------------------------|------------------------|
E|--------------------------|------------------------|

1 + + 2 + + 3 + + 4 + + 1 + + 2 + + 3 + + 4 + +
E|15b17------------r15----|------------------------|
B|------------------------|------------------------|
G|------------------------|------------------------|
D|------------------------|------------------------|
A|------------------------|------------------------|
E|------------------------|------------------------|


The solo begins over the last two bars of the one-finger
riff. It begins with the second motiv discussed above.

1 + + 2 + + 3 + + 4 + + 1 + + 2 + + 3 + + 4 + +
E|---------------------------|------------------------|
B|------------------8---8b10-|slowly release to-8---8-|
G|---------------------------|------------------------|
D|---------------------------|------------------------|
A|---------------------------|------------------------|
E|---------------------------|------------------------|


1 + + 2 + + 3 + + 4 + + 1 + + 2 + + 3 + + 4 + +
E|------------------5-----|----5-----5-----5-----5-----5-----5-|
B|8p7-5-------------5-----|----5-----5-----5-----5-----5-----5-|
G|------7-5h6-------------|7b9---7b9---7b9---7b9---7b9---7b9---|
D|------------7-----------|------------------------------------|
A|------------------------|------------------------------------|
E|------------------------|------------------------------------|


1 + + 2 + + 3 + + 4 + + 1 + + 2 + + 3 + + 4 + +
E|----5-----5-----5---------------|------------------------------|
B|----5-----5-----5-----5---------|----5-----5-----5---5-8-7-5---|
G|7b9---7b9---7b9---7b9---7-5h6---|7-7---7b9---7b9---7---------7-|
D|------------------------------7-|------------------------------|
A|--------------------------------|------------------------------|
E|--------------------------------|------------------------------|

1 + + 2 + + 3 + + 4 + + 1 + + 2 + + 3 + + 4 + +
E|------------------------|5-----5-5-----5-5-----5-5-----5-|
B|5-----------------------|5-----5-5-----5-5-----5-5-----5-|
G|--7-5*------------7b9---|--7b9-----7b9-----7b9-----7b9---|
D|------7-----5-----------|--------------------------------|
A|------------------------|--------------------------------|
E|------------------------|--------------------------------|
*bend 1/4 tone

The next three bars are difficult to copy as Francis takes liberty
in rhythm.

1 + + 2 + + 3 + + 4 + +
E|5-------------------------------5-----|
B|5-7b8-5-----5-7b8-5-----5-5-----5-7b8-|
G|--------7b9---------7b9-----7b9-------|
D|--------------------------------------|
A|--------------------------------------|
E|--------------------------------------|

1 + + 2 + + 3 + + 4 + +
E|------------------------------------|
B|------5-7b8-5-------5-7b8-5---5---8-|
G|--7b9-----------7b9-------------7---|
D|------------------------------------|
A|------------------------------------|
E|------------------------------------|

1 + + 2 + + 3 + + 4 + + 1 + + 2 + + 3 + + 4 + +
E|--------------------------|------------------------|
B|7-5---5-------------------|------------------------|
G|----7---7-5h6-------------|----------------------5-|
D|--------------7p5---5\----|--5-5-5-------5-7-7-----|
A|-------------------------/|7----------/7-----------|
E|--------------------------|------------------------|

1 + + 2 + + 3 + + 4 + + 1 + + 2 + + 3 + + 4 + +
E|-------------------------|----------------10b12-12r10----|
B|---------------------8-8-|8---8---8-8-8------------------|
G|7b9---5--5~~~~~~~~/9-9-9-|9---9/9-9-9-9------------------|
D|--------7----------------|-------------------------------|
A|-------------------------|-------------------------------|
E|-------------------------|-------------------------------|

1 + + 2 + + 3 + + 4 + + 1 + + 2 + + 3 + + 4 + +
E|8---------------------------|--------------------------5-|
B|--10-----10p8---8\----------|--------------------------5-|
G|--------------9-------------|------------7---5-7b9r7p5---|
D|----------------------------|--------5-7---7-------------|
A|--------------------------3-|3----/7---------------------|
E|----------------------------|----------------------------|


1 + + 2 + + 3 + + 4 + + 1 + + 2 + + 3 + + 4 + +
E|5-----------------------|------------------------|
B|5-------------------8-8-|8-8-8-8-8-8-7-7-7-6-6-6-|
G|----7-5~~~~~5~~~~/9-9-9-|9-9-9-9-9-9-8-8-8-7-7-7-|
D|------------------------|------------------------|
A|------------------------|------------------------|
E|------------------------|------------------------|

1 + + 2 + + 3 + + 4 + +
E|------------------------|
B|------------------------|
G|5h6---------------------|
D|----7-7p5---5-----------|
A|------------------------|
E|------------------------|

Hook:
1 + + 2 + + 3 + + 4 + + 1 + + 2 + + 3 + + 4 + +
E|------------------------|------------------------|
B|5-----------------------|7-----------------------|
G|5-----------------------|7-----------------------|
D|5-----------------------|7-----------------------|
A|3-----------------------|5-----------------------|
E|------------------------|------------------------|


1 + + 2 + + 3 + + 4 + +
E||--------------------------------------------------||
B||*------------------------------------------------*||
G||--------------------------------------------------||
D||--------------------------------------------------|| 2x
A||*10------10--12------10--10------10--12------10--*||
E||-8-------8---8-------8---8-------8---8-------8----||
. . . . (. = short)

1 + + 2 + + 3 + + 4 + +
E|------------------------------------------------|
B|------------------------------------------------|
G|------------------------------------------------|
D|------------------------------------------------|
A|7-------7---9-------7---7-------7---9--p7-------|
E|5-------5---5-------5---5-------5---5-------8---|
. . . .
1 + + 2 + + 3 + + 4 + +
E|------------------------------------------------|
B|------------------------------------------------|
G|------------------------------------------------|
D|----------------7-------------------------------|
A|7-------7---9-----------7-------7---7---8---9---|
E|5-------5-----------8---5-------5---5---6---7---|
. . .

1 + + 2 + + 3 + + 4 + +
E||--------------------------------------------------||
B||*------------------------------------------------*||
G||--------------------------------------------------||
D||--------------------------------------------------|| 2x
A||*10------10--12------10--10------10--12------10--*||
E||-8-------8---8-------8---8-------8---8-------8----||
. . . .

1 + + 2 + + 3 + + 4 + +
E|------------------------------------------------|
B|-----------------------------------*7-------5---| *play only the
G|------------------------------------7-------6---| two bottom-
D|------------------------------------7-------7---| strings. The
A|7-------7---9-------7---7-------7---9-------7---| triads on top
E|5-------5---5-------5---5-------5---5-------5---| are overdubs
. . . .
1 + + 2 + + 3 + + 4 + +
E|------------------------------------------------|
B|------------------------------------------------|
G|------------------------------------------------|
D|------------------------------------------------|
A|7-------7---9-------7---7-------7---7---8---9---|
E|5-------5---5-------5---5-------5---5---6---7---|
. . . .
1 + + 2 + + 3 + + 4 + +
E||--------------------------------------------------||
B||*------------------------------------------------*||
G||--------------------------------------------------||
D||--------------------------------------------------|| 2x
A||*10------10--12------10--13------10--12------10--*||
E||-8-------8---8-------8---8-------8---8-------8----||
. . . .
1 + + 2 + + 3 + + 4 + +
E||--------------------------------------------------||
B||*------------------------------------------------*||
G||-2-------2---2-------2---2-------2---2-------2----||
D||-3-------3---3-------3---3-------3---3-------3----|| 2x
A||*3-------3---3-------3---3-------3---3-------3---*||
E||-1-------1---1-------1---1-------1---1-------1----||
. . . .
1 + + 2 + + 3 + + 4 + +
E||-0-------0---0-------0---0-------0---0-------0----||
B||*0-------0---0-------0---0-------0---0-------0---*||
G||-1-------1---1-------1---1-------1---1-------1----||
D||-2-------2---2-------2---2-------2---2-------2----|| 2x
A||*2-------2---2-------2---2-------2---2-------2---*||
E||-0-------0---0-------0---0-------0---0-------0----||
. . . .

Status Quo Menu

Status Quo News



«  Декабрь 2016  »
ПнВтСрЧтПтСбВс
   1234
567891011
12131415161718
19202122232425
262728293031

    Russian Fan Site Status Quo! 2008 2016 |