Status Quo - Rain4


Rain4 Тип: басс табулатура


Tabbed By: Belavista Man
On: 28/08/09
E-mail: anthonybentley@hotmail.co.uk

INTRO:
G|-----|-----------------------------|
D|-----|-----------------------------|
A|-5-3-|-------------------------3-3-|
E|-----|-5-5-5-5-5-5-5-5-5-5-5-5-----| X4

VERSE:
G|---------------------------------|
D|---------------------------------|
A|---------------------------------|
E|-5-5-5-5-5-5-5-5-5-5-5-5-5-5-5-5-|

Play four times, then play this twice:
G|------------------------------------------------------------------|
D|------------------------------------------------------------------|
A|--3-3-3-3-3-3-3-3-5-5-5-5-5-5-5-5---------------------------------|
E|----------------------------------5-5-5-5-5-5-5-5-5-5-5-5-5-5-5-5-|

[PLAY THE INTRO AGAIN BETWEEN VERSES]

LINK:
G|------------------------------------------------------------------|
D|------------------------------------------------------------------|
A|--5-5-5-5-5-5-5-5-3-3-3-3-3-3-3-3---------------------------------|
E|----------------------------------5-5-5-5-5-5-5-5-5-5-5-5-5-5-5-5-|

G|------------------------------------------------------------------|
D|------------------------------------------------------------------|
A|--5-5-5-5-5-5-5-5-3-3-3-3-3-3-3-3-5-5-5-5-5-5-5-5-3-3-3-3-3-3-3-3-|
E|------------------------------------------------------------------|

G|------------------------------------------------------------------|
D|------------------------------------------------------------------|
A|------------------------------3-3-----------------------------3-3-|
E|--5-5-5-5-5-5-5-5-5-5-5-5-5-5-----5-5-5-5-5-5-5-5-5-5-5-5-5-5-----|

SOLO:
G|---------------------------------|
D|---------------------------------|
A|---------------------------------|
E|-5-5-5-5-5-5-5-5-5-5-5-5-5-5-5-5-| X8

G|------------------------------------------------------------------|
D|------------------------------------------------------------------|
A|--3-3-3-3-3-3-3-3-5-5-5-5-5-5-5-5---------------------------------|
E|----------------------------------5-5-5-5-5-5-5-5-5-5-5-5-5-5-5-5-|

G|------------------------------------------------------------------|
D|------------------------------------------------------------------|
A|--3-3-3-3-3-3-3-3-5-5-5-5-5-5-5-5---------------------------------|
E|----------------------------------5-5-5-5-5-5-5-5-5-5-5-5-5-5-5-5-|

CONTRASTING THEME: *
G|----------------------------|---------------------------------|
D|----------------------------|---------------------------------|
A|--3-(Let ring)-5-(let ring)-|-3-3-3-3-3-3-3-3-3-3-3-3-3-3-3-3-|
E|----------------------------|---------------------------------|

G|----------------------------------|
D|----------------------------------|
A|----------------------------------|
E|--5-5-5-5-5-5-5-5-5-5-5-5-5-5-5-5-| Repeat once from *

G|-----------------------------------------------------------------|
D|-----------------------------------------------------------------|
A|-3-3-3-3-3-3-3-3-3-3-3-3-3-3-3-3---------------------------------|
E|---------------------------------1-1-1-1-1-1-1-1-1-1-1-1-1-1-1-1-|

G|---------------------------------|
D|---------------------------------|
A|---------------------------------|
E|-0-0-0-0-0-0-0-0-0-0-0-0-0-0-0-0-|

Play the intro thing again with this bassline:
G|-------------------------------------------------------------------------|
D|------------5----------------------------7-------------------------------|
A|--------5-7----------3-3-------------5-7-----------3-3-------------------|
E|-5------------5----------5-5-5-5-5-5-------5-5-5-5-----------------------|

[VERSE]

[LINK]


Status Quo Menu

Status Quo News



«  Декабрь 2016  »
ПнВтСрЧтПтСбВс
   1234
567891011
12131415161718
19202122232425
262728293031

    Russian Fan Site Status Quo! 2008 2016 |