Status Quo - Rave On


Rave On Тип: табулатура


Rave On
(Petty / Tilghman / West)


Opening: C#-D B-C F#-G C#-D B-C F#-G


verse:
G
Well, the little things you say and do

Make me want to be with you
C
Rave on, it's a crazy feelin' and
G
I know it's got me reelin'
D
When you say I love you
G-C-G (tones: E-F-F#-G)
Rave on


verse:
The way you dance and hold me tight
The way you kiss and say good night
Rave on, it's a crazy feelin' and
I know it's got me reelin'
I'm so glad that your revealing
Your love for me


chorus:
C
Rave on, rave on and tell me
G
Tell me, not to be lonely
D
Tell me, you love me only
G C G
Rave on for me


Guitar solo:
G
E|-----------------------------------------------------------|
H|-----------------------------------------------------------|
G|-------------------------------------------------------7-9-|
D|-----5-7b8r7-5-7b8r7-5-7b8-7-5-7b8-7-5-7b8r7p5-7-5-7-9-----|
A|-5-7-------------------------------------------------------|
E|-----------------------------------------------------------|

C
E|------10-----10----10----10-----------------------------------|
H|-8-10-10b12--10b12-10b12-10b12r10-8---17-17-18-18-17-17-18-18-|
G|--------------------------------------17-17-19-19-17-17-19-19-|
D|--------------------------------------------------------------|
A|--------------------------------------------------------------|
E|--------------------------------------------------------------|

G D
E|-------------------------------------------------10--12--13--14-|
H|-17-17--15-15-15-13-13-13-13------------------------------------|
G|-17-17--16-16-15-14-14-14-14-------12---------/11--12--13--14---|
D|----------------------------------------------------------------|
A|-----------------------------12/14----14\12-10------------------|
E|----------------------------------------------------------------|

G C
E|---12----6-----------------------------------------|
H|---------5b6--3------------------------------------|
G|-12--11---------5-3-4-------5-----5-5-----5-5------|
D|----------------------5-------7-5-----7-5-----7-5--|
A|---------------------------------------------------|
E|---------------------------------------------------|

G D G
E|----------------------------------------------------------|
H|-----------------------------------------------8-10b12----|
G|-0-----0-0-----0-2b3---7b9-----------------7-9------------|
D|---2-0-----2-0-------------------------5-9----------------|
A|-----------------------------------5-7--------------------|
E|-------------------------------3-7------------------------|

C G
E|----------------------------------------------|
H|----------------------------------------------|
G|-5-----5-5-----5-5----------------------------|
D|---7-5-----7-5-----7-5---5-----5--------------|
A|---------------------------7-5---7-5----------|
E|-------------------------------------5b6r5-3--|

Guitar: C#-D B-C F#-G


verse:
Well, the little things you say and do
Make me want to be with you
Rave on, it's a crazy feelin' and
I know it's got me reelin'
When you say I love you
Rave on


chorus:
Rave on, it's a crazy feelin' and
I know it's got me reelin'
I'm so glad that your revealing
Your love for me

chorus:
Rave on, rave on and tell me
Tell me, not to be lonely
Tell me, you love me only
Rave on for me

chorus with guitar:
Rave on
Rave on
Rave on
Rave on for me

Rave on
Rave on

Guitar: C#-D B-C F#-G

Status Quo Menu

Status Quo News



«  Декабрь 2016  »
ПнВтСрЧтПтСбВс
   1234
567891011
12131415161718
19202122232425
262728293031

    Russian Fan Site Status Quo! 2008 2016 |