Status Quo - Rock And Roll


Rock And Roll Тип: табулатура


tabbed by marcus lubock
status quo
rock and roll
email any mistakes on marcus4king@fsmail.net

Intro E F#m7 B E A B A/C# B7/D# E


E F#m7 B E
1) Never thought I'd have a worry or need to be alone
2) Looking back it can be funny it can be very strange
3) Rushing always in a hurry I tried to give it up

E F#m7 C F
1) playing near or far too many times I should have known
2) never win or lose too many you'll have to rearrange
3) everything we do is funny it's never good enough

D A E
It can lose you all your sleep at night

D A E
twelve bar blues is now alright

D A E F#m7 E/G#
Now it's up to you to try to find a reason to

A
rock 'n' roll in every song

B
rock 'n' roll in every one

E
It's rock and roll and rock and rock and roll

B G#7/C
it's rock and roll and rock keeps rolling on

C#m7 F# B F (G#)
waiting all the time to find radio plays on Caroline

A B C#m
they say you'll get there in the end

F#m7 B E C#m A Asus4 B E
we can pray what we say makes a difference in the end


(OUTRO) SOLO

E|---------------------------------------------------------------------|
B|------------------------------------10b12r--9~-----------------------|
G|----------------------------9-11-9~----------------------------------|
D|----------------7-9-7~-9/11------------------------------------------|
A|-----7-6-5~-7/9------------------------------------------------------|
E|-12\-----------------------------------------------------------------|


E|---------------------------------------------------------------------|
B|---------------------------------------------------------------------|
G|---------------------------9-11----9~11----9~-11b13---r(10)p9--------|
D|-------------7-9---7~-9/11------11------11---------------------------|
A|--7-6-5~-7/9-----9---------------------------------------------------|
E|---------------------------------------------------------------------|


E|-------------------------------------12~------------------------------|
B|--12b14r12b14r-12-10-12-10-10-9-10-9----------------------------------|
G|----------------------------------------------------------------------|
D|----------------------------------------------------------------------|
A|----------------------------------------------------------------------|
E|----------------------------------------------------------------------|


E|----------------------------------------------------------------------|
B|-12b14r12b14r-12-10-12-10-10-9-10-9-----10-10p9-10p9-12b14------------|
G|------------------------------------9~--------------------------------|
D|----------------------------------------------------------------------|
A|----------------------------------------------------------------------|
E|----------------------------------------------------------------------|


E|----------------------------------------------------------------------|
B|----------------------------------10b12r-9~---------------------------|
G|-------------------------9-11-9~--------------------------------------|
D|-------------7-9-7~-9/11----------------------------------------------|
A|-7-6-5~-7/9-----------------------------------------------------------|
E|----------------------------------------------------------------------|


E|----------------------------------------------------------------------|
B|----------------------------------------------------------------------|
G|---------------------------9-11----9~-11----9~--11--------------------|
D|------------7-9---7~--9/11------11-------11--------11-----------------|
A|-7-6-5~-7/9-----9-----------------------------------------------------|
E|----------------------------------------------------------------------|


E|------------------------------------12~-------------------------------|
B|-12b14-14r12--12-10-12-10-10-9-10-9-----------------------------------|
G|----------------------------------------------------------------------|
D|----------------------------------------------------------------------|
A|----------------------------------------------------------------------|
E|----------------------------------------------------------------------|


E|----------------------------------------------------------------------|
B|-12b14r12b14r-12-10-12-10-10-9-10-9------10-10p9-10p9-12b14-----------|
G|------------------------------------9~--------------------------------|
D|----------------------------------------------------------------------|
A|----------------------------------------------------------------------|
E|----------------------------------------------------------------------|


Legend
------
h = hammer-on
p = pull-off
b = bend
r = bend release
/ = slide up/down
~ = vibrato

Status Quo Menu

Status Quo News



«  Декабрь 2016  »
ПнВтСрЧтПтСбВс
   1234
567891011
12131415161718
19202122232425
262728293031

    Russian Fan Site Status Quo! 2008 2016 |