Status Quo - Roll Over Beethoven


Roll Over Beethoven Тип: табулатура


Roll Over Beethoven
(C. Berry - Jewel)


Guitar intro:

E|----------10-10-10-10-10-10-10-10-13p1210----------|
H|----10-12-10-10-10-10-10-10-10-10---------13p12p10-|
G|-11------------------------------------------------|
D|---------------------------------------------------|
A|---------------------------------------------------|
E|---------------------------------------------------|


E|----------------------------------------|
H|-------------------------------10-10-10-|
G|-12-10-------11-11-11-11-11-11-11-11-11-|
D|-------12-10-12-12-12-12-12-12----------|
A|----------------------------------------|
E|----------------------------------------|

G
E|-10-10-10-10-10-------------10-10-10-10-------------|
H|-10-10-10-10-10-12-10-------10-10-10-10-12-10-------|
G|----------------12-10-11----------------12-10-11----|
D|-------------------------12----------------------12-|
A|----------------------------------------------------|
E|----------------------------------------------------|

D
E|-----------------------------------------|
H|----10-10b----10-10b----10-10b----10-10b-|
G|----10-10b----10-10b----10-10b----10-10b-|
D|-12--------12--------12--------12--------|
A|-----------------------------------------|
E|-----------------------------------------|

A
E|-10-10-10-10-12-13-12-10--10-10-10-12-13-12-10-|
H|-10-10-10-10-12-13-12-10--10-10-10-12-13-12-10-|
G|-----------------------------------------------|
D|-----------------------------------------------|
A|-----------------------------------------------|
E|-----------------------------------------------|

D
E|-------------------------------------|
H|-13-12-10----10-10----10-10----10-10-|
G|-13-12-10----10-10----10-10----10-10-|
D|----------12-------12-------12-------|
A|-------------------------------------|
E|-------------------------------------|


D
I'm gonna write a little letter
G D
Gonna mail it to my local DJ
G
Yeah, it's a rockin' little record
D
I want my jockey to play
A D
Roll over Beethoven, I gotta hear it again today


D
You know my temperature's risin
G D
And the jukebox blowin a fuse
G
My heart's beatin' rhythm
D
And my soul keeps singin' the blues
A D
Roll over Beethoven and tell Tschaikowsky the news


D
I got a rockin' pneumonia
G D
I need a shot of rhythm and blues
G
I got the rollin' arthritis
D
Sittin' down at the rhythm review
G A D - A
Roll over Beethoven and rockin' in two by two


D
Well, if you feel you like it

Go get your lover, then reel and rock it
G
Roll it over and move on up just
D
A trifle further and reel and rock it

With one and other
A G D - A
Roll over Beethoven and dig these rhythm and blues


Guitar solo:
D
E|------------------------------10-10-------10-10-|
H|------------10-13b15-10-------10-10-------10-10-|
G|-----7-9-11-------------12b14-------12b14-------|
D|-7-9--------------------------------------------|
A|------------------------------------------------|
E|------------------------------------------------|


E|-10-10-10-13-12-10----------------10-10-------10-10-|
H|-10-10-10-13-12-10-13-12-10-------10-10-------10-10-|
G|-------------------13-12-10-12b14-------12b14-------|
D|----------------------------------------------------|
A|----------------------------------------------------|
E|----------------------------------------------------|


E|-------------------------------------------------------|
H|-13b15-13b15r13p10----------10-10b----10-10b----10-10b-|
G|-------------------10h11----10-10b----10-10b----10-10b-|
D|-------------------------12--------12--------12--------|
A|-------------------------------------------------------|
E|-------------------------------------------------------|


E|-13-12-10----10-------------------------------|
H|-13-12-10-12-10-12--------10b12/-8-10----8-10-|
G|----------12----12------7-------------10------|
D|-------------------7-10-----------------------|
A|----------------------------------------------|
E|----------------------------------------------|


E|-------------------------------------------------------|
H|-------10-10-------10-10-------10-13-10-------10-13-10-|
G|-12b14-------12b14-------12b14----------12b14----------|
D|-------------------------------------------------------|
A|-------------------------------------------------------|
E|-------------------------------------------------------|


E|-------------------------------------------------------------------|
H|-------10-13-10-------10-13-10-------10-13-10-------10-13-10-13b15-|
G|-12b14----------12b14----------12b14----------12b14----------------|
D|-------------------------------------------------------------------|
A|-------------------------------------------------------------------|
E|-------------------------------------------------------------------|


E A
Well, early in the mornin' I'm a-givin' you the warnin'
E
Don't you step on my blue Suede shoes
A
Hey diddle diddle, I'm playin' my fiddle
E
Ain't got nothin' to lose
H E
Roll over Beethoven and tell Tschaikowsky the news


E
You know she wiggles like a glow worm

Dance like a spinnin' top
A
She got a crazy partner
E
You oughta see 'em reel and rock
H E
Long as she got a dime the music will never stop


H E
Roll over Beethoven (Roll over Beethoven)

Roll over Beethoven (Roll over Beethoven)
A
Roll over Beethoven (Roll over Beethoven)
E
Roll over Beethoven (Roll over Beethoven)
H E
Roll over Beethoven and dig these rhythm and blues


Roll over Beethoven (Roll over Beethoven)
Roll over Beethoven (Roll over Beethoven)
Roll over Beethoven (Roll over Beethoven)
Roll over Beethoven (Roll over Beethoven)
Roll over Beethoven and dig these rhythm and blues

Status Quo Menu

Status Quo News



«  Декабрь 2016  »
ПнВтСрЧтПтСбВс
   1234
567891011
12131415161718
19202122232425
262728293031

    Russian Fan Site Status Quo! 2008 2016 |