Status Quo - The Dustpipe


The Dustpipe Тип: басс табулатура


DOWN THE DUSTPIPE
STATUS QUO


Intro (with harmonica) 8x
G-----||---------------------------------------------||---------------------------|
D--4:-||*-------------------------------------------*||---------------------------|
A--4:-||*---10---10---10---10---10---10---10---10---*||---------------------------|
E-----||---------------------------------------------||---------------------------|
Shuffle beat
Verse
G---||------------------------------------|---------------------------------|---|
D---||*-----------------------------------|---------------------------------|---|
A---||*---10--10--10--10--10--10--10--10--|-10--10--10--10--10--10--10--10--|---|
E---||------------------------------------|---------------------------------|---|
(1.) Headin' down the back turnpike
(2.) rollin' down the dustpipe now
(3.) Guess I didn't make it in the city, but

G-----------------------------------|-----------------------------------|-------|
D-----------------------------------|-----------------------------------|-------|
A---10--10--10--10--10--10--10--10--|--10--10--10--10--8h10p8--7--------|-------|
E-----------------------------------|-----------------------------10----|-------|
__ signposts are pointin' west
got a 10 dollar bill in my jeans
that's just the way that it goes,

G-----------------------------------|------------------------------------------|
D-----------------------------------|------------------------------------------|
A-----------------------------------|------------------------------------------|
E---8---8---8---8---8---8---8---8---|---8---8---8---8---8---8---8---8----------|
Turn into___ the lonely dustpipe___ , hope my
(cause there's) no room for a cosher cowboy, in a
(cause there's) lotta lunatics crazy ghostmen, babe, they
G-----------------------------------|----------------------------------|--------|
D-----------------------------------|----------------------------------|--------|
A---10--10--10--10--10--10--10--10--|--10--10--10--10--10--10--10--10--|--------|
E-----------------------------------|----------------------------------|--------|
pickup can stand the test ___ But I'm doin' all
town like New Or_ leans___
dont like the shape of my nose__

G-----------------------------------|----------------------------------|--------|
D-----------------------------------|----------------------------------|--------|
A-----------------------------------|----------------------------------|--------|
E---10--10--10--10--10--10--10--10--|--10--10--10--10--10--10--10--10--|--------|
right now__ rolling down the dust_

3x
G---------------------------|-------------------------------------||------------|
D---------------------------|------------------------------------*||------------|
A---------------------------|------------------------------------*||------------|
E---8--8--8--8--8--8--8--8--|---10--10--10--10--10--10--10--10----||------------|
pipe, na na na naah na na na naah ____


Instrumental with Harmonica
G-----------------------------------|----------------------------------|--------|
D-----------------------------------|----------------------------------|--------|
A---10--10--10--10--10--10--10--10--|--10--10--10--10--10--10--10--10--|--------|
E-----------------------------------|----------------------------------|--------|

G------------------------------------|--------------------------------|---------|
D------------------------------------|--------------------------------|---------|
A---10--10--10--10--10--10--10--10---|-10--10--10--10--8h10p8--7------|---------|
E------------------------------------|----------------------------10--|---------|

G---------------------------|--------------------------|------------------------|
D---------------------------|--------------------------|------------------------|
A---------------------------|--------------------------|------------------------|
E---8--8--8--8--8--8--8--8--|--8--8--8--8--8--8--8--8--|------------------------|

G-----------------------------------|----------------------------------|--------|
D-----------------------------------|----------------------------------|--------|
A---10--10--10--10--10--10--10--10--|--10--10--10--10--10--10--10--10--|--------|
E-----------------------------------|----------------------------------|--------|


G-----------------------------------|----------------------------------|--------|
D-----------------------------------|----------------------------------|--------|
A---10--10--10--10--10--10--10--10--|--10--10--10--10--10--10--10--10--|--------|
E-----------------------------------|----------------------------------|--------|

G---------------------------|----------------------------------|-------------|-|
D---------------------------|----------------------------------|-------------|-|
A---------------------------|--10--10--10--10--10--10--10--10--|--10---------|-|
E---8--8--8--8--8--8--8--8--|----------------------------------|-----11--10--|-|


4th verse (same as 2nd verse)
G-----------------------------------------|---------------------------------|---|
D-----------------------------------------|---------------------------------|---|
A---------10--10--10--10--10--10--10--10--|-10--10--10--10--10--10--10--10--|---|
E-----------------------------------------|---------------------------------|---|
rollin' down the dustpipe now

G-----------------------------------|-----------------------------------|-------|
D-----------------------------------|-----------------------------------|-------|
A---10--10--10--10--10--10--10--10--|--10--10--10--10--8h10p8--7--------|-------|
E-----------------------------------|-----------------------------10----|-------|
got a 10 dollar bill in my jeans

G-----------------------------------|------------------------------------------|
D-----------------------------------|------------------------------------------|
A-----------------------------------|------------------------------------------|
E---8---8---8---8---8---8---8---8---|---8---8---8---8---8---8---8---8----------|
(cause there's) no room for a cosher cowboy, in a

G-----------------------------------|----------------------------------|--------|
D-----------------------------------|----------------------------------|--------|
A---10--10--10--10--10--10--10--10--|--10--10--10--10--10--10--10--10--|--------|
E-----------------------------------|----------------------------------|--------|
town like New Or_ leans___ But I'm doing all_

G-----------------------------------|----------------------------------|--------|
D-----------------------------------|----------------------------------|--------|
A-----------------------------------|----------------------------------|--------|
E---10--10--10--10--10--10--10--10--|--10--10--10--10--10--10--10--10--|--------|
right now__ rolling down the dust_

3x
G---------------------------|------------------------------------|--------------|
D---------------------------|------------------------------------|--------------|
A---------------------------|------------------------------------|--------------|
E---8--8--8--8--8--8--8--8--|---10--10--10--10--10--10--10--10---|--------------|
pipe, na na na naah na na na naah ____

Last verse: One fret up!!
G-----------------------------------|-----------------------------------|-------|
D-----------------------------------|-----------------------------------|-------|
A---11--11--11--11--11--11--11--11--|---11--11--11--11--11--11--11--11--|-------|
E-----------------------------------|-----------------------------------|-------|
Rollin' down the dustpipe now


G-----------------------------------|-----------------------------------|-------|
D-----------------------------------|-----------------------------------|-------|
A---11--11--11--11--11--11--11--11--|---11--11--11--11--9h11p9--8-------|-------|
E-----------------------------------|------------------------------11---|-------|
got a 10 dollar bill in my jeans


G-----------------------------------|-----------------------------------|-------|
D-----------------------------------|-----------------------------------|-------|
A-----------------------------------|-----------------------------------|-------|
E---9---9---9---9---9---9---9---9---|---9---9---9---9---9---9---9---9---|-------|
(cause there's) no room for a cosher cowboy__, in a


G-----------------------------------|-----------------------------------|-------|
D-----------------------------------|-----------------------------------|-------|
A---11--11--11--11--11--11--11--11--|---11--11--11--11--11--11--11--11--|-------|
E-----------------------------------|-----------------------------------|-------|
town like New Or_ leans ___ But I'm doin' all


G-----------------------------------|-----------------------------------|-------|
D-----------------------------------|-----------------------------------|-------|
A---11--11--11--11--11--11--11--11--|---11--11--11--11--11--11--11--11--|-------|
E-----------------------------------|-----------------------------------|-------|
right now__ rolling downt the dust


G-----------------------------------|-----------------------------------||------|
D-----------------------------------|-----------------------------------||------|
A-----------------------------------|-----------------------------------||------|
E---9---9---9---9---9---9---9---9---|---11--11--11--11--11--11--11--11--||------|
pipe na na naah na na na na naah ____

Status Quo Menu

Status Quo News



«  Декабрь 2016  »
ПнВтСрЧтПтСбВс
   1234
567891011
12131415161718
19202122232425
262728293031

    Russian Fan Site Status Quo! 2008 2016 |