Status Quo - The First Time (intro)


The First Time (intro) Тип: табулатура


Going Down For The First Time
Status Quo
Perfect Remedy 1989


Gtr. 1
E|----------------------------|
B|-7-5------------------------|
G|-----7-4------4-6-7-7-6-4---|
D|---------4-7--------------7-|
A|----------------------------|
E|----------------------------|

Gtr. 2
E|-----------------------------|
B|-----------------------------|
G|-----------------------------|
D|-4-2-0------------0-0--------|
A|-------2---0--2-4-----/4-2-0-|
E|---------2-------------------|

D
I wake up every mornin'
G
and that's my first mistake
A7 D
from there on in, its downhill all the way

etc...

Status Quo Menu

Status Quo News



«  Март 2017  »
ПнВтСрЧтПтСбВс
  12345
6789101112
13141516171819
20212223242526
2728293031

    Russian Fan Site Status Quo! 2008 2017 |