Status Quo - The Last Century


The Last Century Тип: табулатура


Famous In The Last Century
(Andrew Bown)

Guitar intro:
E
E|-----------------------------------------|
H|-0-0---0---0---0-2-3-0-0---0---0---0-2-3-|
G|-1-1-2---2-1-2-------1-1-2---2-1-2-------| <- repeat once
D|-2-2-------2---------2-2-------2---------|
A|-2-2-------2---------2-2-------2---------|
E|-0-0-------0---------0-0-------0---------|


verse:
E
The radio
A/E E
The vinyl disc
A
The jukebox chart
C#m
The hit and miss
H A E/G# A
And all the stars that went with this


chorus:
H F#-C#
In the last century
E F# H
Last century
H F#-C#
Famous in the last century


Guitar intro:
E
E|-----------------------------------------|
H|-0-0---0---0---0-2-3-0-0---0---0---0-2-3-|
G|-1-1-2---2-1-2-------1-1-2---2-1-2-------|
D|-2-2-------2---------2-2-------2---------|
A|-2-2-------2---------2-2-------2---------|
E|-0-0-------0---------0-0-------0---------|

verse:
Eddie Cochran
Jerry Lee
Phil and Don and Bobby Vee
The way the music used to be

chorus:
In the last century
The last century
Famous in the last century
E F# G#m
Last century

Status Quo Menu

Status Quo News



«  Декабрь 2016  »
ПнВтСрЧтПтСбВс
   1234
567891011
12131415161718
19202122232425
262728293031

    Russian Fan Site Status Quo! 2008 2016 |