Status Quo - The The Time


The The Time Тип: табулатура


Most Of The Time
Status Quo

1 + 2 + 3 + 4 + 5 + 6 + 1 + 2 + 3 + 4 + 5 + 6 + +
F#|--0-------------0-------|------0-------------------|
D#|0---0-----------0-------|------0-------------------|
B |0-------0---0-----0-----|0---0---------------------|
F#|0-------0---0h2---0h2---|2p0-------------0-0-0h2p0-|
B |0-----------------------|------------0-------------|
F#|------------------------|--------------------------|

1 + 2 + 3 + 4 + 5 + 6 + 1 + 2 + 3 + 4 + 5 + 6 +
F#|--0-------------0-------|----0-------------------|
D#|0---0-----------1-------|----0-0-0---0-----------|
B |0-----0-----0-----0-----|0-------0-------0-------|
F#|0-------0---0h2---0h2---|2p0-----------------0---|
B |0-----------------------|------------------------|
F#|------------------------|------------------------|

1 + 2 + 3 + 4 + 5 + 6 + 1 + 2 + 3 + 4 + 5 + 6 +
F#|--------------0-------0-|--0-----------0---------|
D#|----1-1-1-1-1-1-1---0---|1-1---1---1-1-1---1---1-|
B |----2-2-2-2-2---2---2---|2---2-2-2-2-2---2-2-2-2-|
F#|0-----------------------|----4---0-------4---0---|
B |------------------------|------------------------|
F#|------------------------|------------------------|

1 + 2 + 3 + 4 + 5 + 6 + 1 + 2 + 3 + 4 + 5 + 6 +
F#|----------------------------|------------------------|
D#|----0-0-0-0-1-----1---0-----|----0-------------------|
B |----0-0-0-0-0-----0---2/4---|0-----------------------|
F#|0-----------0h2p0-----------|0-----------------------|
B |0---------------------------|0-----------------------|
F#|----------------------------|------------------------|



A-verse 2

1 + 2 + 3 + 4 + 5 + 6 + 1 + 2 + 3 + 4 + 5 + 6 +
F#|----0-----------0-------|----------------------------|
D#|----0-----------1-1-----|----0---------------0-----0-|
B |------0-----------0-----|------0-----0-------0-0---0-|
F#|0-------0---0h2---0h2---|2p0-----0---2p0*--0---2p0*--|
B |0-----------0-----------|0---------------------------|
F#|------------------------|----------------------------|
*execute these pull-offs very quickly

1 + 2 + 3 + 4 + 5 + 6 + 1 + 2 + 3 + 4 + 5 + 6 +
F#|--------------------------|----0-------------------|
D#|------0-------0h1-1-1---1-|1p0-0-------0-----------|
B |0-------0-----0---0-0---0-|0-----0---------0-------|
F#|2p0*------0---0h2---0h2---|2p0-----0-----------0---|
B |--------------------------|------------------------|
F#|--------------------------|------------------------|

1 + 2 + 3 + 4 + 5 + 6 + 1 + 2 + 3 + 4 + 5 + 6 +
F#|----0-0-0-0-0-------0---|--0---------------------|
D#|1---1-1-1-1-1-------0---|1-1---1---1-------------|
B |2---2-2-2-2-2-----------|2---2-2-2-2-------------|
F#|0---------------0-------|----0---0---2p0---------|
B |------------------------|----------------4-3-2-0-|
F#|------------------------|------------------------|

1 + 2 + 3 + 4 + 5 + 6 + 1 + 2 + 3 + 4 + 5 + 6 +
F#|----0-0-0-0---------------|0-----------0-0-0-0-----|
D#|----0-0-0-0-1/3---2---1---|0---0---0---0-0-0-0-----|
B |----0-0-0-0-2/4---3---2---|0---0---0---0-0-0-0-----|
F#|0---0-0-0-0-0-------------|0-----------0-0-0-0-0---|
B |0-------------------------|--------------------0---|
F#|--------------------------|------------------------|



B-verse:

1 + 2 + 3 + 4 + 5 + 6 + 1 + 2 + 3 + 4 + 5 + 6 +
F#|------2-----------------|------------------------|
D#|--------2-2---------3---|2-2---2---2-2-2---2---2-|
B |----2-----2---------2---|2---2-------2---2-------|
F#|2-------------2---2-2---|2-------2---2-------2---|
B |2-----------2---2---2---|2-----------------------|
F#|------------------------|------------------------|

1 + 2 + 3 + 4 + 5 + 6 + 1 + 2 + 3 + 4 + 5 + 6 +
F#|--------------------3---|2-----------------------|
D#|----1---------------1---|1-----------------------|
B |0---0-----0---0---0-0---|0-----------------------|
F#|0h2-----2---2-----------|--------3-------2-------|
B |------------------------|------------0-------0---|
F#|------------------------|------------------------|

1 + 2 + 3 + 4 + 5 + 6 + 1 + 2 + 3 + 4 + 5 + 6 +
F#|------------------------|------------------------|
D#|----0-------------------|------------------------|
B |--------0---------------|----0-------0---0---0---|
F#|0-----------0h2p0-0-2p0-|2-------2---3---2---2---|
B |0-----------------------|------------------------|
F#|------------------------|------------------------|

1 + 2 + 3 + 4 + 5 + 6 + 1 + 2 + 3 + 4 + 5 + 6 +
F#|-------------------------|------0---0-------------|
D#|----0-0---0--0---0-0-0---|1-----1---1-------------|
B |----0-0-0-0-/4---4-4-0-2-|2---2---2---------------|
F#|0-------0---/5---5-------|0---4---0---------------|
B |0------------------------|----------------13\-----|
F#|-------------------------|-----------/14----------|

1 + 2 + 3 + 4 + 5 + 6 + 1 + 2 + 3 + 4 + 5 + 6 +
F#|------------------------|----0-0-0-0-------------|
D#|------------------------|----1-1-1-1-------------|
B |----0-------0-----0-----|0---0-0-0-0-0---0---0---|
F#|0-----------0h2p0-0-2p0-|2-----------3---2---2---|
B |0-------0---------------|------------------------|
F#|------------------------|------------------------|

1 + 2 + 3 + 4 + 5 + 6 + 1 + 2 + 3 + 4 + 5 + 6 +
F#|------------------------|----4-4-4-4-------------|
D#|------------------------|----3-3-3-3-------------|
B |----0-------2/4-----4\2-|2---2-2-2-2-------------|
F#|0-------0---0---5-------|0---4---0---------------|
B |0-------0---0-----------|----------------13\-----|
F#|------------------------|-----------/14----------|


1 + 2 + 3 + 4 + 5 + 6 + 1 + 2 + 3 + 4 + 5 + 6 +
F#|------------------0-----|------------------------|
D#|----0-0-0-0-------------|1-----1-----1---1---1---|
B |----0-0-0-0-0---0---0-0-|0---0-0-0-0-0---0---0---|
F#|0---0-0-0-0-3-------3-3-|2---2---2-2-2---2---2---|
B |0-----------------------|------------2---2---2---|
F#|------------------------|------------------------|
. . . (.=short)

1 + 2 + 3 + 4 5 + 6 + 1 + 2 + 3 + 4 + 5 + 6 +
F#|------------0---------0---|0-----------------------|
D#|------0---------------1---|0-----------------------|
B |----0-0-0-0-2h3p2p0-0-2---|0-----------------------|
F#|0---0---0-0-----------0---|0-----------------------|
B |0---------------------2---|0-----------------------|
F#|--------------------------|------------------------|

The part that Rick plays nowadays in the Mystery Mess is much easier
to play. I've written out the verses of that version too. You can use
that one instead of the part I've written above. If you want to play
along with the Mystery Mess, place your capo on the second position
instead of the fourth. You can use mottmyst.mp3 as reference.

play this bar 3 times
1 + 2 + 3 + 4 + 5 + 6 + 1 + 2 + 3 + 4 + 5 + 6 +
E ||--------------------------||------------------------|
C#||*----0-----------1-------*||------------------------|
A ||--------0------------0----||------------------------|
E ||-------------0h2----------||0-----------------------|
A ||*0-----------------------*||0-----------------------|
E ||--------------------------||------------------------|

A-verse 1:
1 + 2 + 3 + 4 + 5 + 6 +
E ||----(0)-------------------||
C#||*----0-----------1-------*||
A ||--------0------------0----||
E ||-------------0h2----------|| 4x
A ||*0-----------------------*||
E ||--------------------------||

1 + 2 + 3 + 4 + 5 + 6 + 1 + 2 + 3 + 4 + 5 + 6 +
E |----------------0-------|----0-------------------|
C#|----1-----------3---2---|1---1---1---------------|
A |--------2---2/4-----3---|2---------------0-------|
E |0-----------------------|------------0h2-----2---|
A |------------------------|------------------------|
E |------------------------|------------------------|

1 + 2 + 3 + 4 + 5 + 6 + 1 + 2 + 3 + 4 + 5 + 6 +
E |----0-------------------|------------------------|
C#|----0---0---1/2\1p0-----|0-----------------------|
A |------------2/3\2p0-----|0-----------------------|
E |--------------------2p0-|------------------------|
A |0-----------------------|------------------------|
E |------------------------|------------------------|


For A-verse 2 repeat the first verse but skip the
last two bars and continue with:

1 + 2 + 3 + 4 + 5 + 6 + 1 + 2 + 3 + 4 + 5 + 6 +
E |------------------------|------------------------|
C#|----0-------------------|------------------------|
A |--------0---------------|0-----------------------|
E |0-----------------0-2---|0-----------------------|
A |------------0h2/4-------|------------0---4---3---|
E |------------------------|------------------------|


1 + 2 + 3 + 4 + 5 + 6 + 1 + 2 + 3 + 4 + 5 + 6 +
E |------------2-----------|------------2-----------|
C#|------------2-----2-3---|2---2-2-x-2-2---2-------|
A |--------2---------2-2---|2---2-2-x-2---------2---|
E |----2---------------4---|2---2-2-x-2-------------|
A |2-------------------2---|------------------------|
E |------------------------|------------------------|


1 + 2 + 3 + 4 + 5 + 6 + 1 + 2 + 3 + 4 + 5 + 6 +
E |------------0-----------|------------------------|
C#|--------1---1-----------|1-----------------------|
A |----0-------------------|0-----------------------|
E |0h2---------------------|2-----------------------|
A |------------------------|------------------------|
E |------------------------|------------------------|


1 + 2 + 3 + 4 + 5 + 6 + 1 + 2 + 3 + 4 + 5 + 6 +
E |------------------------|----0-------0-----------|
C#|----0-----------0-----0-|----1-----------1-------|
A |----0-----0-------------|----0---------------0---|
E |------------0h2---0h2---|0h2---------------------|
A |0-----------------------|------------------------|
E |------------------------|------------------------|


1 + 2 + 3 + 4 + 5 + 6 + 1 + 2 + 3 + 4 + 5 + 6 +
E |----------------0-------|----0-------------------|
C#|----0-----------3---2---|1---1-------------------|
A |--------0---2/4-4---3---|2---------------0-----0-|
E |------------------------|------------0h2---0h2---|
A |0-----------------------|--------0---------------|
E |------------------------|------------------------|


1 + 2 + 3 + 4 + 5 + 6 + 1 + 2 + 3 + 4 + 5 + 6 +
E |------------------------|------------0-----------|
C#|----0-----------0-----0-|----1-----------1-------|
A |0-------0---------------|----0---------------0---|
E |0-----------0h2---0h2---|0h2---------------------|
A |------------------------|------------------------|
E |------------------------|------------------------|

1 + 2 + 3 + 4 + 5 + 6 + 1 + 2 + 3 + 4 + 5 + 6 +
E |----------------0-------|----0-------------------|
C#|----0-----------3---2---|--------1---------------|
A |--------0---2/4-4---3---|2---------------0-------|
E |------------------------|------------2-------2---|
A |0-----------------------|------------------------|
E |------------------------|------------------------|

1 + 2 + 3 + 4 + 5 + 6 + 1 + 2 + 3 + 4 + 5 + 6 +
E |------------------------|------------0-----------|
C#|----0-----------0-----0-|----1-----------1-------|
A |--------0---------------|----0---------------0---|
E |------------0h2---0h2---|0h2---------------------|
A |0-----------------------|------------------------|
E |------------------------|------------------------|

1 + 2 + 3 + 4 + 5 + 6 + 1 + 2 + 3 + 4 + 5 + 6 +
E |------------------------|------------------------|
C#|----0-------1/2\1p0-----|0-----------------------|
A |--------0---2/3\2p0-----|0-----------------------|
E |0-------------------2p0-|0-----------------------|
A |------------------------|0-----------------------|
E |------------------------|------------------------|

Solobacking:

On mottsolo.mp3 you can hear this backing.

1 + 2 + 3 + 4 + 5 + 6 +
F#||--------------------------||
D#||*0-------0---1-------1---*||
B ||-0-------0---0-------0----|| 2x
F#||-0-------0---2-------2----||
B ||*0-------0---0-------0---*||
F#||--------------------------||
Play these chords short

1 + 2 + 3 + 4 + 5 + 6 +
F#||--------------------------||
D#||*5-------5---6-------6---*||
B ||-5-------5---5-------5----||
F#||-5-------5---7-------7----|| 2x
B ||*5-------5---5-------5---*||
F#||--------------------------||

1 + 2 + 3 + 4 + 5 + 6 + 1 + 2 + 3 + 4 + 5 + 6 +
F#|------------------------|------------------------|
D#|0-------0---1-------1---|3-------3---1-------1---|
B |0-------0---0-------0---|0-------0---0-------0---|
F#|0-------0---2-------2---|3-------3---2-------2---|
B |0-------0---0-------0---|0-------0---0-------0---|
F#|------------------------|------------------------|

1 + 2 + 3 + 4 + 5 + 6 + 1 + 2 + 3 + 4 + 5 + 6 +
F#|------------------------|----0---0---0---0---0---|
D#|0-------0---1-------1---|0---0---0---0---0---0---|
B |0-------0---0-------0---|0---0---0---0---0---0---|
F#|0-------0---2-------2---|0---0---0---0---0---0---|
B |0-------0---0-------0---|0-----------------------|
F#|------------------------|------------------------|

1 + 2 + 3 + 4 + 5 + 6 +
F#||--------------------------||
D#||*5-------5---6-------6---*||
B ||-5-------5---5-------5----||
F#||-5-------5---7-------7----|| 4x
B ||*5-------5---5-------5---*||
F#||--------------------------||

1 + 2 + 3 + 4 + 5 + 6 +
F#||--------------------------||
D#||*0-------0---1-------1---*||
B ||-0-------0---0-------0----|| 4x
F#||-0-------0---2-------2----||
B ||*0-------0---0-------0---*||
F#||--------------------------||

From here let the chords ring as long as possible:

1 + 2 + 3 + 4 + 5 + 6 + 1 + 2 + 3 + 4 + 5 + 6 +
F#|------------------------|------------------------|
D#|0-------0---1-------1---|3-------3---1-------1---|
B |0-------0---0-------0---|0-------0---0-------0---|
F#|0-------0---2-------2---|3-------3---2-------2---|
B |0-------0---0-------0---|0-------0---0-------0---|
F#|------------------------|------------------------|

1 + 2 + 3 + 4 + 5 + 6 + 1 + 2 + 3 + 4 + 5 + 6 +
F#|------------------------|------------------------|
D#|5-------5---6-------6---|5-------5---6-----6-6---|
B |5-------5---5-------5---|5-------5---5-----5-5---|
F#|5-------5---7-------7---|5-------5---7-----7-7---|
B |5-------5---5-------5---|5-------5---5-----5-5---|
F#|------------------------|------------------------|

1 + 2 + 3 + 4 + 5 + 6 + 1 + 2 + 3 + 4 + 5 + 6 +
F#||-------------------------|-------------------------||
D#||*0-------0---1-------1---|3-------3---1-------1---*||
B ||-0-------0---0-------0---|0-------0---0-------0----|| 2x
F#||-0-------0---2-------2---|3-------3---2-------2----||
B ||*0-------0---0-------0---|0-------0---0-------0---*||
F#||-------------------------|-------------------------||

1 + 2 + 3 + 4 + 5 + 6 + 1 + 2 + 3 + 4 + 5 + 6 +
F#||-------------------------|-------------------------||
D#||*5-------5---6-------6---|5-------5---6-------6---*||
B ||-5-------5---5-------5---|5-------5---5-------5----|| 2x
F#||-5-------5---7-------7---|8-------8---7-------7----||
B ||*5-------5---5-------5---|5-------5---5-------5---*||
F#||-------------------------|-------------------------||

1 + 2 + 3 + 4 + 5 + 6 + 1 + 2 + 3 + 4 + 5 + 6 +
F#||-------------------------|-------------------------||
D#||*0-------0---1-------1---|3-------3---1-------1---*||

B ||-0-------0---0-------0---|0-------0---0-------0----|| 2x
F#||-0-------0---2-------2---|3-------3---2-------2----||
B ||*0-------0---0-------0---|0-------0---0-------0---*||
F#||-------------------------|-------------------------||


B-verse (end)

1 + 2 + 3 + 4 + 5 + 6 + 1 + 2 + 3 + 4 + 5 + 6 +
F#|------------------------|------------------------|
D#|2-------2---2-----2-3---|2---2-2-2---2---2-2-2---|
B |2-------2---2-----2-2---|2---2-2-2---2---2-2-2---|
F#|2-------2---2-----2-4---|2---2-2-2---2---2-2-2---|
B |2-------2---2-----2-2---|2---2-2-2---2---2-2-2---|
F#|------------------------|------------------------|

1 + 2 + 3 + 4 + 5 + 6 + 1 + 2 + 3 + 4 + 5 + 6 +
F#|------------------------|------------------------|
D#|1---1-1-1---1---1-1-1---|------------------------|
B |0---0-0-0---0---0-0-0---|--------0-------0-------|
F#|2---2-2-2---2---2-2-2---|----3-------2-------2---|
B |0---0-0-0---0---0-0-0---|2-----------------------|
F#|------------------------|------------------------|


1 + 2 + 3 + 4 + 5 + 6 + 1 + 2 + 3 + 4 + 5 + 6 +
F#||-------------------------|------------------------|
D#||*0---0-0-0---------------|1---1-1--1--1---1---1---|
B ||-0---0-0-0-------0-------|0---0-0--0--0---0---0---|
F#||-0---0-0-0---0h2---0h2p0-|2---2-2--2--3---2---2---|
B ||*0---0-0-0---------------|------------------------|
F#||-------------------------|------------------------|


1 + 2 + 3 + 4 + 5 + 6 + 1 + 2 + 3 + 4 + 5 + 6 +
F#|------------------------|-------------------------||
D#|0---0-0-0---1/3-3-3-3\1-|1---1-1-1---1---1---1---*||
B |0---0-0-0---2/4-4-4-4\2-|2---2-2-2---0---0---0----|| 2x
F#|0---0-0-0---0---0-0-0---|0---0-0-0---2---2---2----||
B |0---0-0-0---------------|------------0---0---0---*||
F#|------------------------|-------------------------||


1 + 2 + 3 + 4 + 5 + 6 + 1 + 2 + 3 + 4 + 5 + 6 +
F#|------------------------|------------------------|
D#|0---0-0-0---3---3-3-3-3-|1---1-1--1--1---1---1---|
B |0---0-0-0---0---0-0-0-0-|0---0-0--0--0---0---0---|
F#|0---0-0-0---3---3-3-3-3-|2---2-2--2--3---2---2---|
B |0---0-0-0---0---0-0-0-0-|------------------------|
F#|------------------------|------------------------|


1 + 2 + 3 + 4 + 5 + 6 + 1 + 2 + 3 + 4 + 5 + 6 +
F#|------------------------|------------------------|
D#|0---0-0-0---1/3-3-3-3\1-|1---1-1-1---1---1---1---|
B |0---0-0-0---2/4-4-4-4\2-|2---2-2-2---0---0---0---|
F#|0---0-0-0---0---0-0-0---|0---0-0-0---2---2---2---|
B |0---0-0-0---------------|------------0---0---0---|
F#|------------------------|------------------------|


1 + 2 + 3 + 4 + 5 + 6 + 1 + 2 + 3 + 4 + 5 + 6 +
F#|------------------------|------------------------|
D#|0---0-0-0---------------|1---1-1--1--1---1---1---|
B |0---0-0-0-------0-------|0---0-0--0--0---0---0---|
F#|0---0-0-0---0h2---0h2p0-|2---2-2--2--3---2---2---|
B |0---0-0-0---------------|------------------------|
F#|------------------------|------------------------|

1 + 2 + 3 + 4 + 5 + 6 + 1 + 2 + 3 + 4 + 5 + 6 +
F#|------------------------|------------------------|
D#|0---0-0-0---1/3-3-3-3\1-|1---1-1-1---1---1---1---|
B |0---0-0-0---2/4-4-4-4\2-|2---2-2-2---0---0---0---|
F#|0---0-0-0---0---0-0-0---|0---0-0-0---2---2---2---|
B |0---0-0-0---------------|------------0---0---0---|
F#|------------------------|------------------------|

1 + 2 + 3 + 4 + 5 + 6 + 1 + 2 + 3 + 4 + 5 + 6 +
F#|------------------------|------------------------|
D#|0---0-0-0---------------|1---1-1--1--1---1---1---|
B |0---0-0-0-------0-------|0---0-0--0--0---0---0---|
F#|0---0-0-0---0h2---0h2p0-|2---2-2--2--3---2---2---|
B |0---0-0-0---------------|------------------------|
F#|------------------------|------------------------|

1 + 2 + 3 + 4 + 5 + 6 + 1 + 2 + 3 + 4 + 5 + 6 +
F#|------------------------|------------------------|
D#|0---0-0-0---------------|3---3-3-3---1---1-1--1--|
B |0---0-0-0-------0-------|2---2-2-2---0---0-0--0--|
F#|0---0-0-0---0h2---0h2p0-|0---0-0-0---2---2-2--2--|
B |0---0-0-0---------------|------------------------|
F#|------------------------|------------------------|

1 + 2 + 3 + 4 + 5 + 6 + 1 + 2 + 3 + 4 + 5 + 6 +
F#|------------------------|------------------------|-------------||
D#|0---0-0-0---------------|1---1-1--1--1---1-1-1---|0------------||
B |0---0-0-0-------0-------|0---0-0--0--0---0-0-0---|0------------||
F#|0---0-0-0---0h2---0h2p0-|2---2-2--2--2---2-2-2---|0------------||
B |0---0-0-0---------------|------------------------|0------------||
F#|------------------------|------------------------|-------------||


Status Quo Menu

Status Quo News



«  Декабрь 2016  »
ПнВтСрЧтПтСбВс
   1234
567891011
12131415161718
19202122232425
262728293031

    Russian Fan Site Status Quo! 2008 2016 |