Status Quo - The Time


The Time
 
 
Francis part:

I couldn't figure out exactly what Francis is playing.
For example the first two bars I hear in the bottom
something like this:

1 + 2 + 3 + 4 + 5 + 6 + 1 + 2 + 3 + 4 + 5 + 6 +
E|------------------------|------------------------|
B|------------------------|------------------------|
G|------------------------|------------------------|
D|4---4-4-4---2---2-2-2---|4---4-4-4---4---4-4-4---|
A|2---2-2-2---2h4-4-4-4---|4p2-2-2-2---2---2-2-2---|
E|------------------------|------------------------|

And the upper notes something like this:

1 + 2 + 3 + 4 + 5 + 6 + 1 + 2 + 3 + 4 + 5 + 6 +
E|------------------------|------------------------|
B|4---4-4-4-4-4h5-5-5-5-5-|5p4-4-4-4-4-4---4-4-4-4-|
G|4---4-4-4-4-4---4-4-4-4-|4---4-4-4-4-4---4-4-4-4-|
D|4---4-4-4-4-4h6-6-6-6-6-|6p4-4-4-4-4-4---4-4-4-4-|
A|------------------------|------------------------|
E|------------------------|------------------------|

I couldn't find a way to combine these two.
Possible solutions:
- there are more than two guitars in the backing
- Francis plays this part in a different tuning, that makes no sence
as the solo is played in a standard tuning
- there's something wrong with my ears

I will give you the upper notes of the part I'm hearing as backing
for the verses.

Backing for A-verse 1:

1 + 2 + 3 + 4 + 5 + 6 + 1 + 2 + 3 + 4 + 5 + 6 +
E||-------------4---4-4-4-4-|*------------------------||
B||*4---4-4-4-4-4h5-5-5-5-5-|5p4-4-4-4-4-4---4-4-4-4-*||
G||-4---4-4-4-4-4---4-4-4-4-|4---4-4-4-4-4---4-4-4-4--|| 2x
D||-4---4-4-4-4-4h6-6-6-6-6-|6p4-4-4-4-4-4---4-4-4-4--||
A||*------------------------|------------------------*||
E||-------------------------|-------------------------||
Make sure the high e-string
is muted on this spot. You can
use your right-hand pinky for that.

1 + 2 + 3 + 4 + 5 + 6 + 1 + 2 + 3 + 4 + 5 + 6 +
E|6---6-6-6-6-6---6-6-6-6-|6---6-6-6-6-6---6-6-6-6-|
B|5---5-5-5-5-5---5-5-5-5-|5---5-5-5-5-5---5-5-5-5-|
G|6---6-6-6-6-6---6-6-6-6-|6---6-6-6-6-6---6-6-6-6-|
D|4---4-4-4-4-4---4-4-4-4-|4---4-4-4-4-4---4-4-4-4-|
A|------------------------|------------------------|
E|------------------------|------------------------|

1 + 2 + 3 + 4 + 5 + 6 + 1 + 2 + 3 + 4 + 5 + 6 +
E|------------4---4-4-4-4-|------------------------|
B|4---4-4-4-4-4h5-5-5-5-5-|4-----------------------|
G|4---4-4-4-4-4---4-4-4-4-|4-----------------------|
D|4---4-4-4-4-4h6-6-6-6-6-|4-----------------------|
A|------------------------|------------------------|
E|------------------------|------------------------|


A-verse 2:
Repeat verse 1 but replace the last two bars by

1 + 2 + 3 + 4 + 5 + 6 + 1 + 2 + 3 + 4 + 5 + 6 +
E|-------------------------|------------------------|
B|4---4-4-4-4-5/7--6---5---|4---4-4-4-4-4---4-4-4-4-|
G|4---4-4-4-4-6/8--7---6---|4---4-4-4-4-4---4-4-4-4-|
D|4---4-4-4-4--------------|4---4-4-4-4-4---4-4-4-4-|
A|-------------------------|------------------------|
E|-------------------------|------------------------|



B-verse

1 + 2 + 3 + 4 + 5 + 6 + 1 + 2 + 3 + 4 + 5 + 6 +
E|------------------------|------------------------|
B|6---6-6-6-6-6---6-6-7---|6---6-6-6-6-6---6-6-6-6-|
G|6---6-6-6-6-6---6-6-6---|6---6-6-6-6-6---6-6-6-6-|
D|6---6-6-6-6-6---6-6-8---|6---6-6-6-6-6---6-6-6-6-|
A|------------------------|------------------------|
E|------------------------|------------------------|

1 + 2 + 3 + 4 + 5 + 6 + 1 + 2 + 3 + 4 + 5 + 6 +
E|------------------------|------------------------|
B|9---9-9-9-9-9---9-9-10--|9-----------------------|
G|9---9-9-9-9-9---9-9-9---|9-----------------------|
D|9---9-9-9-9-9---9-9-11--|9-----------------------|
A|------------------------|------------------------|
E|------------------------|------------------------|

1 + 2 + 3 + 4 + 5 + 6 + 1 + 2 + 3 + 4 + 5 + 6 +
E|------------------------|------------------------|
B|4---4-4-4-4-4---4-4-4-4-|5---5-5-5-5-5---5-5-5-5-|
G|4---4-4-4-4-4---4-4-4-4-|4---4-4-4-4-4---4-4-4-4-|
D|4---4-4-4-4-4---4-4-4-4-|6---6-6-6-6-6---6-6-6-6-|
A|------------------------|------------4---4-4-4-4-|
E|------------------------|------------------------|

1 + 2 + 3 + 4 + 5 + 6 + 1 + 2 + 3 + 4 + 5 + 6 +
E|------------------------|6---6-6-6-6-4---4-4-4-4-|
B|4---4-4-4-4-4---4-4-4-4-|5---5-5-5-5-5---5-5-5-5-|
G|4---4-4-4-4-4---4-4-4-4-|6---6-6-6-6-4---4-4-4-4-|
D|4---4-4-4-4-4---4-4-4-4-|4---4-4-4-4-6---6-6-6-6-|
A|------------------------|------------------------|
E|------------------------|------------------------|

1 + 2 + 3 + 4 + 5 + 6 + 1 + 2 + 3 + 4 + 5 + 6 +
E|------------------------|4---4-4-4-4-4---4-4-4-4-|
B|4---4-4-4-4-4---4-4-4-4-|5---5-5-5-5-5---5-5-5-5-|
G|4---4-4-4-4-4---4-4-4-4-|4---4-4-4-4-4---4-4-4-4-|
D|4---4-4-4-4-4---4-4-4-4-|6---6-6-6-6-6---6-6-6-6-|
A|------------------------|------------------------|
E|------------------------|------------------------|

1 + 2 + 3 + 4 + 5 + 6 + 1 + 2 + 3 + 4 + 5 + 6 +
E|------------------------|6---6-6-6-6-4---4-4-4-4-|
B|4---4-4-4-4-4---4-4-4-4-|5---5-5-5-5-5---5-5-5-5-|
G|4---4-4-4-4-4---4-4-4-4-|6---6-6-6-6-4---4-4-4-4-|
D|4---4-4-4-4-4---4-4-4-4-|4---4-4-4-4-6---6-6-6-6-|
A|------------------------|------------------------|
E|------------------------|------------------------|

1 + 2 + 3 + 4 + 5 + 6 + 1 + 2 + 3 + 4 + 5 + 6 +
E|------------------------|4---4-4-4-4-4---4-4-4-4-|
B|4---4-4-4-4-4---4-4-4-4-|5---5-5-5-5-5---5-5-5-5-|
G|4---4-4-4-4-4---4-4-4-4-|4---4-4-4-4-4---4-4-4-4-|
D|4---4-4-4-4-4---4-4-4-4-|6---6-6-6-6-6---6-6-6-6-|
A|------------------------|------------------------|
E|------------------------|------------------------|

1 + 2 + 3 + 4 + 5 + 6 + 1 + 2 + 3 + 4 + 5 + 6 +
E|------------------------|------------------------|
B|4---4-4-4-4-5---5---5---|4-----------------------|
G|4---4-4-4-4-4---4---4---|4-----------------------|
D|4---4-4-4-4-6---6---6---|4-----------------------|
A|------------4---4---4---|2-----------------------|
E|------------------------|------------------------|




Solo:

You can use mottsolo.mp3 as reference.

1 + 2 + 3 + 4 + 5 + 6 + 1 + 2 + 3 + 4 + 5 + 6 +
E|-----7-------------7-------|9b10-9-7---7-7\------/---|
B|7------------10b12---------|---------9-----\----/----|
G|9b11-----------------------|----------------\--/-----|
D|---------------------------|-----------------\/------|
A|---------------------------|-------------------------|
E|---------------------------|-------------------------|

1 + 2 + + 3 + + 4 + 5 + 6 +
E|14b16-14-12-------------------------------|
B|------------14-12----12-14b16-14b16-14b17-|
G|------------------13----------------------|
D|------------------------------------------|
A|------------------------------------------|
E|------------------------------------------|

1 + 2 + 3 + 4 + 5 + 6 + 1 + 2 + 3 + 4 + 5 + + 6 +
E|--------------------------/---|------------------4---------|
B|14b17-14-12----12-12\----/----|------------------4---------|
G|------------13-------\--/-----|------------4-6b8---6p4-4---|
D|----------------------\/------|--------4-6-----------------|
A|------------------------------|2---4/6---------------------|
E|------------------------------|----------------------------|

1 + 2 + + 3 + 4 + 5 + + 6 + 1 + + 2 + + 3 + + 4 + + 5 + + 6 + +
E|----4-------------4---------|7-5-4-------7-5-4-------7-5-4-------|
B|----4-------------4---------|------7-5-4-------7-5-4-------7-5-4-|
G|6b8---6p4-4---6b8---6p4-4---|------------------------------------|
D|----------------------------|------------------------------------|
A|----------------------------|------------------------------------|
E|----------------------------|------------------------------------|

1 + + 2 + + 3 + 4 + 5 + 6 + 1 + 2 + 3 + 4 + 5 + 6 +
E|7-5-4-7-------------------------|-----------------------9b11-|
B|--------5-4-6b8----r6p4-------7-|9b10-9b10-9b10~~~~~~r9------|
G|-----------------------*6p4/8---|----------------------------|
D|--------------------------------|----------------------------|
A|--------------------------------|----------------------------|
E|--------------------------------|----------------------------|
*Don't pick this note but hammer your
ringfinger on the sixth position (gives
weak tone)

1 + + 2 + + 3 + 4 + 5 + 6 +
E|9-7-------------------------|
B|----9-7-----7---7-------12--|
G|--------8-------8--/13------|
D|----------------------------|
A|----------------------------|
E|----------------------------|
. (. = short)


1 + 2 + + 3 + + 4 + 5 + + 6 + +
E|14b16-14-12-------------14b16-14-12-------------|
B|------------14-12----12-------------14-12----12-|
G|------------------13----------------------13----|
D|------------------------------------------------|
A|------------------------------------------------|
E|------------------------------------------------|

1 + 2 + + 3 + + 4 + 5 + 6 +
E|14b16-14-12-------------------------|
B|------------14-12----12-------------|
G|------------------13----12--12--12--|
D|------------------------------------|
A|------------------------------------|
E|------------------------------------|

1 + + 2 + + 3 + + 4 + + 5 + + 6 + +
E|------------------------------------------|
B|------------------------------------------|
G|7p6---------------------------------------|
D|----9-9p7-6-6h7p6-----------------6-7-9---|
A|------------------9-7h9p7-6-6-7-9---------|
E|------------------------------------------|

1 + + 2 + + 3 + + 4 + + 5 + + 6 + +
E|----------------------------------------|
B|----------------------------------------|
G|6h7p6---6-------------------------------|
D|------9---9-7-6h7p6---6-----------------|
A|--------------------9---9-7-6-7-9-9-----|
E|----------------------------------------|

1 + 2 + 3 + 4 + 5 + 6 + 1 + 2 + 3 + 4 + 5 + 6 +
E|-------------------------|--------7-----------------|
B|-------------------------|------------7--------7----|
G|------------------7-9b11*|------------9b11-----9b11-|
D|------------6-7-9--------|--------------------------|
A|6-7-9-6-7-9--------------|--------------------------|
E|-------------------------|--------------------------|
*bend slowly

1 + 2 + 3 + 4 + 5 + 6 + 1 + 2 + 3 + 4 + 5 + 6 +
E|------------------------------|-----7--------------------|
B|7----7----7----7----7----7----|7----7----------------12--|
G|9b11-9b11-9b11-9b11-9b11-9b11-|9b11*11r9-8---8--/13------|
D|------------------------------|--------------------------|
A|------------------------------|--------------------------|
E|------------------------------|--------------------------|
*still bend

1 + 2 + 3 + 4 + 5 + 6 + 1 + 2 + 3 + 4 + 5 + 6 +
E|------------------------|------------------------|
B|12--12------12--12------|14b16---*r14--12-----\--|
G|--------13----------12--|------------------------|
D|------------------------|------------------------|
A|------------------------|------------------------|
E|------------------------|------------------------|
*release slowly

1 + 2 + 3 + 4 + 5 + 6 + 1 + 2 + 3 + 4 + 5 + 6 +
E|------------------------|----7---7---7-------7---|
B|----------------7---8---|9-----------------9-----|
G|----7---8---9-----------|------------------------|
D|------------------------|------------------------|
A|------------------------|------------------------|
E|------------------------|------------------------|
. . . . . . (.=short)

1 + 2 + 3 + 4 + 5 + 6 + 1 + 2 + 3 + 4 + 5 + 6 +
E|9b10*-------9b10*-------|9-7---7-----7---7---7---|
B|------------------------|----------9-------------|
G|------------------------|------------------------|
D|------------------------|------------------------|
A|------------------------|------------------------|
E|------------------------|------------------------|
*release slightly . . (.=short)

1 + 2 + 3 + 4 + 5 + 6 + 1 + 2 + 3 + 4 + 5 + 6 +
E|-------------7-----------|--------7---7\-----/----|
B|10b12--------------------|--7-9---------\---/-----|
G|---------------------7-8-|9--------------\-/------|
D|-------------------------|----------------/-------|
A|-------------------------|------------------------|
E|-------------------------|------------------------|


1 + 2 + 3 + 4 + 5 + 6 + 1 + 2 + 3 + 4 + 5 + 6 +
E|------------------------|------------------------|
B|19b21--r19--19b21--r19--|19b21--r19--19b21--r19--|
G|------------18b20--r18--|18b20--r18--18b20--r18--|
D|------------------------|------------------------|
A|------------------------|------------------------|
E|------------------------|------------------------|

1 + 2 + 3 + 4 + 5 + 6 + 1 + 2 + 3 + 4 + 5 + 6 +
E|------------------------|------------------------|
B|19b21--r19--19b21--r19--|19b21--r19--19b21--r19--|
G|18b20--r18--18b20--r18--|18b20--r18--18b20--r18--|
D|------------------------|------------------------|
A|------------------------|------------------------|
E|------------------------|------------------------|

1 + 2 + 3 + 4 + 5 + 6 + 1 + 2 + 3 + 4 + 5 + 6 +
E|------------------------|------------------------|
B|------------------------|------------------------|
G|18--16------16--18--19--|20~~~~~~~~~~~~~~~~~~~~~~|
D|--------18--------------|------------------------|
A|------------------------|------------------------|
E|------------------------|------------------------|




B-verse (end)
1 + 2 + 3 + 4 + 5 + 6 + 1 + 2 + 3 + 4 + 5 + 6 +
E|------------------------|------------------------|
B|6-------6---6-----6-7---|6-------6---6-----------|
G|6-------6---6-----6-6---|6-------6---6-----------|
D|6-------6---6-----6-8---|6-------6---6-----------|
A|------------------------|------------------------|
E|------------------------|------------------------|

1 + 2 + 3 + 4 + 5 + 6 + 1 + 2 + 3 + 4 + 5 + 6 +
E|------4-----------------|------------------------|
B|4h5---5-5---5-------5---|5-----------------------|
G|4-----4-4---4-------4---|4-----------------------|
D|4h6-----6---6-------6---|6-----------------------|
A|------------------------|------------------------|
E|------------------------|------------------------|

1 + 2 + 3 + 4 + 5 + 6 + 1 + 2 + 3 + 4 + 5 + 6 +
E||-------------------------|0-----0-----0-----0-----|
B||*4---------4-4---4---0---|0-----0-----0-----0-----|
G||-4---------4-4---4---0---|1---1-1-1---1---1-1-1---|
D||-4---------4-4---4---0---|2---2---2---2---2---2---|
A||*2-----------2-----------|2---2---2---2---2---2---|
E||-------------------------|0---0---0---0---0---0---|

1 + 2 + 3 + 4 + 5 + 6 + 1 + 2 + 3 + 4 + 5 + 6 +
E|------------------------|------------0---0---0----||
B|4---------4-4---4---0---|2-----2---0-0---0---0---*||
G|4---------4-4---4---0---|3---3-3-3-0-1---1---1----|| 5x
D|4---------4-4---4---0---|4---4-4-4-0-2---2---2----||
A|2-----------2-----------|4---4-4-4---2---2---2---*||
E|------------------------|2---2---2---0---0---0----||

1 + 2 + 3 + 4 + 5 + 6 + 1 + 2 + 3 + 4 + 5 + 6 +
E|------------------------|0-----0-----0-----0-----|-------||
B|4---------4-4---4---0---|0-----0-----0-----0-----|4------||
G|4---------4-4---4---0---|1---1-1-1---1---1-1-1---|4------||
D|4---------4-4---4---0---|2---2---2---2---2---2---|4------||
A|2-----------2-----------|2---2---2---2---2---2---|2------||
E|------------------------|0---0---0---0---0---0---|-------||

Status Quo Menu

Status Quo News



«  Декабрь 2016  »
ПнВтСрЧтПтСбВс
   1234
567891011
12131415161718
19202122232425
262728293031

    Russian Fan Site Status Quo! 2008 2016 |