Status Quo - The World


The World Тип: басс табулатура


rockin all over the world
status quo


| | | | | | | |
|--15/17/----------------9-------|--------------------------------|
|--------------------------------|--------------------------------|
|15------------------------------|--------------------------------|
|--------------------------------|--------------------3---5-------|

| | | | | | | |
|--------------------------------|--------------------------------|
|--------------------------------|--------------------------------|
|3---3---3---3---3---3---3---3---|3---3---3---3---3---3---3---3---|
|--------------------------------|--------------------------------|

| | | | | | | |
|--------------------------------|--------------------------------|
|--------------------------------|--------------------------------|
|3---3---3---3---3---3---3---3---|3---3---3---3---3---------------|
|--------------------------------|--------------------3---5---3---|

| | | | | | | |
|--------------------------------|--------------------------------|
|--------------------------------|--------------------------------|
|3---3---3---3---3---3---3---3---|3---3---3---3---3---------------|
|--------------------------------|--------------------5---3---0---|

| | | | | | | |
|--------------------------------|--------------------------------|
|--------------------------------|--------------------------------|
|--------------------------------|------------------------0---2---|
|1---1---1---1---1---1---1---1---|1---1---1---1---1---1-----------|

| | | | | | | |
|--------------------------------|--------------------------------|
|--------------------------------|--------------------------------|
|3---3---3---3---3---3---3-------|------------------------0---2---|
|----------------------------5---|3---3---3---3---3---3-----------|

| | | | | | | |
|--------------------------------|--------------------------------|
|--------------------------------|--------------------------------|
|3---3---3---3---3---3---3---3---|3---3---3---3---3---------------|
|--------------------------------|--------------------3---5---3---|

| | | | | | | |
|--------------------------------|--------------------------------|
|--------------------------------|--------------------------------|
|3---3---3---3---3---3---3---3---|3---3---3---3---3---------------|
|--------------------------------|--------------------5---3---0---|

| | | | | | | |
|--------------------------------|--------------------------------|
|--------------------------------|--------------------------------|
|--------------------------------|------------------------0---2---|
|1---1---1---1---1---1---1---1---|1---1---1---1---1---1-----------|

| | | | | | | |
|--------------------------------|--------------------------------|
|--------------------------------|--------------------------------|
|3---3---3---3---3---3---3-------|------------------------0---2---|
|----------------------------5---|3---3---3---3---3---3-----------|

| | | | | | | |
|--------------------------------|--------------------------------|
|--------------------------------|--------------------------------|
|3---3---3---3---3---3---3---3---|3---3---3---3---3-----------3---|
|--------------------------------|--------------------3---5-------|

| | | | | | | |
|--------------------------------|--------------------------------|
|--------------------------------|--------------------------------|
|3---3---3---3---3---3---3---3---|3---3---3---3---3---------------|
|--------------------------------|--------------------5---3---0---|

| | | | | | | |
|--------------------------------|--------------------------------|
|--------------------------------|--------------------------------|
|--------------------------------|------------------------0---2---|
|1---1---1---1---1---1---1---1---|1---1---1---1---1---1-----------|

| | | | | | | |
|--------------------------------|--------------------------------|
|--------------------------------|--------------------------------|
|3---3---3---3---3---3---3-------|------------------------0---2---|
|----------------------------5---|3---3---3---3---3---3-----------|

| | | | | | | |
|--------------------------------|--------------------------------|
|--------------------------------|--------------------------------|
|3---3---3---3---3---3---3---3---|3---3---3---3---3---------------|
|--------------------------------|--------------------3---5---3---|

| | | | | | | |
|--------------------------------|--------------------------------|
|--------------------------------|--------------------------------|
|3---3---3---3---3---3---3---3---|3---3---3---3---3---3---3-------|
|--------------------------------|----------------------------5---|

| | | | | | | |
|--------------------------------|--------------------------------|
|--------------------------------|--------------------------------|
|--------------------------------|------------------------0---2---|
|1---1---1---1---1---1---1---1---|1---1---1---1---1---1-----------|

| | | | | | | |
|--------------------------------|--------------------------------|
|--------------------------------|--------------------------------|
|3---3---3---3---3---3---3-------|------------------------0---2---|
|----------------------------5---|3---3---3---3---3---3-----------|

| | | | | | | |
|--------------------------------|--------------------------------|
|--------------------------------|--------------------------------|
|3---3---3---3---3---3---3---3---|3---3---3---3---3---------------|
|--------------------------------|--------------------3---5---3---|

| | | | | | | |
|--------------------------------|--------------------------------|
|--------------------------------|--------------------------------|
|3---3---3---3---3---3---3---3---|--------------------------------|
|--------------------------------|0---0---0---0---0---0---0---0---|

| | | | | | | |
|--------------------------------|--------------------------------|
|--------------------------------|--------------------------------|
|----------------------------3---|----------------------------2---|
|1---1---1---1---1---1---1-------|1---1---1---1---1---1---1-------|

| | | | | | | |
|--------------------------------|--------------------------------|
|--------------------------------|--------------------------------|
|3---3---3---3---3---3---3-------|------------------------0---2---|
|----------------------------5---|3---3---3---3---3---3-----------|

| | | | | | | |
|--------------------------------|--------------------------------|
|--------------------------------|--------------------------------|
|3---3---3---3---3---3---3---3---|3---3---3---3---3---------------|
|--------------------------------|--------------------3---5---3---|

| | | | | | | |
|--------------------------------|--------------------------------|
|--------------------------------|--------------------------------|
|3---3---3---3---3---3---3---3---|3---3---3---3---3---------------|
|--------------------------------|--------------------5---3---0---|

| | | | | | | |
|--------------------------------|--------------------------------|
|--------------------------------|--------------------------------|
|--------------------------------|------------------------0---2---|
|1---1---1---1---1---1---1---1---|1---1---1---1---1---1-----------|

| | | | | | | |
|--------------------------------|--------------------------------|
|--------------------------------|--------------------------------|
|3---3---3---3---3---3---3-------|------------------------0---2---|
|----------------------------5---|3---3---3---3---3---3-----------|

| | | | | | | |
|--------------------------------|--------------------------------|
|--------------------------------|--------------------------------|
|3---3---3---3---3---3---3---3---|3---3---3---3---3-----------2---|
|--------------------------------|--------------------3---5-------|

| | | | | | | |
|--------------------------------|--------------------------------|
|--------------------------------|--------------------------------|
|3---3---3---3---3---3---3---3---|3---3---3---3---3---------------|
|--------------------------------|--------------------5---3---0---|

| | | | | | | |
|--------------------------------|--------------------------------|
|--------------------------------|--------------------------------|
|--------------------------------|----------------------------2---|
|1---1---1---1---1---1---1---1---|1---1---1---1---1---1---1-------|

| | | | | | | |
|--------------------------------|--------------------------------|
|--------------------------------|--------------------------------|
|3---3---3---3---3---3---3-------|------------------------0---2---|
|----------------------------5---|3---3---3---3---3---3-----------|

| | | | | | | |
|--------------------------------|--------------------------------|
|--------------------------------|--------------------------------|
|3---3---3---3---3---3---3---3---|3---3---3---3---3---3---3---3---|
|--------------------------------|--------------------------------|

| | | | | | | |
|--------------------------------|--------------------------------|
|--------------------------------|--------------------------------|
|--------------------------------|--------------------------------|
|----------------------------0---|----------------------------1---|

| | | | | | | |
|--------------------------------|--------------------------------|
|--------------------------------|--------------------------------|
|--------------------------------|--------------------------------|
|----------1-----------------2---|----------2-----------------3---|

| | | | | | | |
|--------------------------------|--------------------------------|
|--------------------------------|--------------------------------|
|--------------------------------|----------------------------3---|
|----------3-----------------3---|----------3---------------------|

| | | | | | | |
|--------------------------------|--------------------------------|
|----------------------------5---|--------------------------------|
|--------3---3---3---3---3-------|3---3---3---3---3-----------2---|
|--------------------------------|--------------------5---3-------|

| | | | | | | |
|--------------------------------|--------------------------------|
|--------------------------------|--------------------------------|
|3---3---3---3---3---3---3---3---|3---3---3---3---3---------------|
|--------------------------------|--------------------5---3---0---|

| | | | | | | |
|--------------------------------|--------------------------------|
|--------------------------------|--------------------------------|
|--------------------------------|------------------------0---2---|
|1---1---1---1---1---1---1---1---|1---1---1---1---1---1-----------|

| | | | | | | |
|--------------------------------|--------------------------------|
|--------------------------------|--------------------------------|
|3---3---3---3---3---3---3---0---|------------------------0---2---|
|--------------------------------|3---3---3---3---3---3-----------|

| | | | | | | |
|--------------------------------|--------------------------------|
|--------------------------------|--------------------------------|
|3---3---3---3---3---3---3---3---|3---3---3---3---3-----------2---|
|--------------------------------|--------------------3---5-------|

| | | | | | | |
|--------------------------------|--------------------------------|
|--------------------------------|--------------------------------|
|3-----------3---3---3---3---3---|--------------------------------|
|--------------------------------|0---0---0---0---0---0---0---0---|

| | | | | | | |
|--------------------------------|--------------------------------|
|--------------------------------|--------1---1-------------------|
|--------------------------------|----------------3---3-----------|
|1---1---1---1---1---1---1---1---|2---2-------------------0---2---|

| | | | | | | |
|--------------------------------|--------------------------------|
|--------------------------------|--------------------------------|
|3---3---3---3---3---3---3---3---|------------------------0---2---|
|--------------------------------|3---3---3---3---3---3-----------|

| | | | | | | |
|--------------------------------|--------------------------------|
|--------------------------------|--------------------------------|
|3---3---3---3---3---3---3---3---|3---3---3---3---3-----------2---|
|--------------------------------|--------------------3---5-------|

| | | | | | | |
|--------------------------------|--------------------------------|
|--------------------------------|--------------------------------|
|3---3---3---3---3---3---3---3/--|7-------------------------------|
|--------------------------------|----0---0---0---0---0---0---0---|

| | | | | | | |
|--------------------------------|--------------------------------|
|--------------------------------|--------------------------------|
|--------------------------------|--------------------------------|
|1---------------1---------------|2---2---2---2---2---2---2---2---|

| | | | | | | |
|--------------------------------|--------------------------------|
|--------------------------------|--------------------------------|
|3---3---3---3---3---3---3-------|----------------------------2---|
|----------------------------5---|3---3---3---3---3---3---5-------|

| | | | | | | |
|--------------------------------|--------------------------------|
|--------------------------------|--------------------------------|
|3---3---3---3---3---3---3---3---|3---3---3---3---3---3---3-------|
|--------------------------------|----------------------------5---|

| | | | | | | |
|--------------------------------|--------------------------------|
|--------------------------------|--------------------------------|
|3---3---3---3---3---3---3---3---|--------------------------------|
|--------------------------------|0---0---0---0---0---0---0---0---|

| | | | | | | |
|--------------------------------|--------------------------------|
|--------------------------------|----------------1---1-----------|
|--------------------------------|--------1---1-----------2---2---|
|1---1---1---1---1---1---1---1---|2---2---------------------------|

| | | | | | | |
|--------------------------------|--------------------------------|
|--------------------------------|--------------------------------|
|3-------------------------------|----------------------------2---|
|----3---3---3---3---3---3---3---|3---3---3---3---3---3---5-------|

| | | | | | | |
|--------------------------------|--------------------------------|
|--------------------------------|--------------------------------|
|3---3---3---3---3---3---3---3---|3---3---3---3---3---------------|
|--------------------------------|--------------------3---5---3---|

| | | | | | | |
|--------------------------------|--------------------------------|
|--------------------------------|--------------------------------|
|3---3---3---3---3---3---3---3---|7-------------------------------|
|--------------------------------|----0---0---0---0---0---0---0---|

| | | | | | | |
|--------------------------------|--------------------------------|
|--------------------------------|4-------------------------------|
|--------------------------------|--------------------------------|
|1---1---1---1---1---1---1---1---|----2---2---2---2---2---2---2---|

| | | | | | | |
|--------------------------------|--------------------------------|
|--------------------------------|--------------------------------|
|--------------------------------|--------------------0---0---2---|
|3---3---3---3---3---3---3---3---|3---3---3---3---3---------------|

| | | | | | | |
|--------------------------------|--------------------------------|
|--------------------------------|--------------------------------|
|3---3---3---3---3---3---3---3---|3---3---3---3---3---------------|
|--------------------------------|--------------------3---5---3---|

| | | | | | | |
|--------------------------------|--------------------------------|
|--------------------------------|2---2---2---2---2---2---2---2---|
|3---3---3---3---3---3---3---3---|--------------------------------|
|--------------------------------|--------------------------------|

| | | | | | | |
|--------------------------------|--------------------------------|
|3-------------------------------|-----Fading.....................|
|--------------------------------|--------------------------------|
|----1---1---1---1---1---1---1---|2---2---2---2---2---2---2---2---|

| | | |
|--------------------------------|
|................................|
|--------------------------------|
|3---3---3---3---3---3---3---3---|

Status Quo Menu

Status Quo News



«  Декабрь 2016  »
ПнВтСрЧтПтСбВс
   1234
567891011
12131415161718
19202122232425
262728293031

    Russian Fan Site Status Quo! 2008 2016 |