Status Quo - World


World Тип: табулатура


Rocking All Over The World
Status Quo
RAOTW 1977
Greg Harper gregharper2007@hotmail.co.uk

Now almost every tab for this is correct except for a few parts.
Here is the outro that so far many people have messed up.
C F F#dim7 C
E|-----------------------------------------------------------------------|
B|-----------------------------------------------------------------------|
G|----7-8-9----7----7----9----7----7----8----7----7----8-8-7-5-7----9----|
D|-10-------10---10---10---10---10---10---10---10---10-----------10---10-|
A|-----------------------------------------------------------------------|
E|-----------------------------------------------------------------------|
G C
E|------------------------------|
B|------------------------------|
G|-7----7----8-8-8-8-8-7-5-7----|
D|---10---10-----------------10-|
A|------------------------------|
E|------------------------------|

And here is RICK PARFITT'S part for the VERSES...

Over C Chords

E|-----8-8----|
B|-------8----|
G|-7/9--------|
D|------------|
A|------------|
E|------------|

Over F Chords

E|-------13-13|
B|----------13|
G|-12/14------|
D|------------|
A|------------|
E|------------|

Over G Chords

E|-------15-15|
B|----------15|
G|-14/16------|
D|------------|
A|------------|
E|------------|

Then for the chorus he plays a shuffly type riff with Frame.

Then theres the problem with the solos.

RICK:
---------Double Stop These If You Wish
| |
E|-----8-----8-------------11/13-13-13-11/13-13-13-11/13-13-13-13-11-10-8-8-|
B|-------------------------11/13-13-13-11/13-13-13-11/13-13-13-13-11-10-8-8-|
G|-7/9---7/9---8-7----------------------------------------------------------|
D|-----------------10-7-10--------------------------------------------------|
A|--------------------------------------------------------------------------|
E|--------------------------------------------------------------------------|

E|-10-----8----------------8-8---------------------------------------------|
B|-10-8---8-10-8-----------8-8-10-8----------------------------------------|
G|----8h9---10-8h9-------------10-8h9--------------------------------------|
D|-----------------10-8---------------10-8----8/10-10-10-8/10-10-10-8/10-10|
A|----------------------10-----------------10-8/10-10-10-8/10-10-10-8/10-10|
E|-------------------------------------------------------------------------|
ETC ETC
FRANCIS:

Fading in during Ricks last bars
E|-15--15--15--15--15--15--15--|
B|-15b-15b-15b-15b-15b-15b-15b-|
G|-----------------------------|ETC ETC
D|-----------------------------|
A|-----------------------------|
E|-----------------------------|

E|-------------------------15b-15-14-13-12-----------------------------------|
B|-15b-15b-15b-15-13----13-----------------15-13----15----13----15b-13-15-13-|
G|-------------------14--------------------------14----14----14--------------|
D|---------------------------------------------------------------------------|
A|---------------------------------------------------------------------------|
E|---------------------------------------------------------------------------|

E|-------15b-rb-15---------------------------------------------------------|
B|----13-----------15b-rb-13-13--------------------------------------------|
G|-14-------------------------------5-5-----5-5-----5-5-----5-5-----5-5----|
D|----------------------------------5-5-----5-5-----5-5-----5-5-----5-5----|
A|------------------------------6h7-----6h7-----6h7-----6h7-----6h7--------|
E|-------------------------------------------------------------------------|
Thats About It!!!


b = bend note
br = release bend
h = hammer on
p = pull off


Please e-mail any Quo requests
or questions on anything musical (anything!)
and I'll try my best...

Status Quo Menu

Status Quo News



«  Декабрь 2016  »
ПнВтСрЧтПтСбВс
   1234
567891011
12131415161718
19202122232425
262728293031

    Russian Fan Site Status Quo! 2008 2016 |